PrimaNota.ru - самый крупный в мире бесплатный архив песенных текстов, аккордов, табулатур и нот


Yasuharu Takanashi - Kizuna - таба, видео

Регистрация Запомнить меня
Войти через:  Facebook Google Twitter Vk Yandex Mail.ru

Yasuharu Takanashi - Kizuna - таба, видео

Печатать
Просмотров: 31
-------------------------------------------------------------------------------
                             Kizuna - Yasuharu Takanashi Acoustic
-------------------------------------------------------------------------------
Tabbed by:Tom (me)
E-mail:teglakupus@gmail.com

Tuning:Standard

e|-3--5-----6--8--10---8--5---3--3----10----12--10--8----10---8---10---------|
B|---------------------------------------------------------------------------|
G|---------------------------------------------------------------------------|
D|---------------------------------------------------------------------------|
A|---------------------------------------------------------------------------|
E|---------------------------------------------------------------------------|

e|-15---15----13---8--8----11--10----3---5----6---8---10----8---5----3-------|
B|---------------------------------------------------------------------------|
G|---------------------------------------------------------------------------|
D|---------------------------------------------------------------------------|
A|---------------------------------------------------------------------------|
E|---------------------------------------------------------------------------|   2x2 

e|--5----6----8---|
B|----------------|
G|----------------|
D|----------------|
A|----------------|
E|----------------|

e|---------3-----1-3-1------------------------------3--1-3-1----5-6-5-3-1-3-5|
B|--3-------------------3-----1--------------3---------------3------------(1)|
G|------3------------------------3-2-0--3--5-----3---------------------------|
D|---------------------------------------------------------------------------|  x2
A|---------------------------------------------------------------------------|
E|---------------------------------------------------------------------------|

e|-3--1--3--6--3---5-3-5----------------3----8---8---6---5--1--3--(5)--------|
B|------------------------1----3---4--6--------------------------------------|
G|---------------------------------------------------------------------------|
D|---------------------------------------------------------------------------|  x2
A|---------------------------------------------------------------------------|
E|---------------------------------------------------------------------------|


************************************

| /   slide up
| \   slide down
| h   hammer-on
| p   pull-off
| ~   vibrato
| +   harmonic
| x   Mute note
| b   Bend
| pb  Pre-bend
| br  Bend release
| pbr Pre-bend release
| brb Bend release bend

************************************
Добавлено: 23.04.2016
Другие материалы по этой песне:
  • Аккорды и текст

Страница создана 23.04.2016
http://primanota.ru/yasuharu-takanashi/kizuna-chords.htm
Привет, Гость.
Предлагаем пройти революционный курс по гитаре.
Подарок от PrimaNota.Ru, забирай!