PrimaNota.ru - самый крупный в мире бесплатный архив песенных текстов, аккордов, табулатур и нот


Yast - Yast - таба, видео

Регистрация Запомнить меня
Войти через:  Facebook Google Twitter Vk Yandex Mail.ru

Yast - Yast - таба, видео

Печатать
Просмотров: 107
YAST - Yast

Tab by theFlavio

intro
e|--2~~-----9~~------2~~-----9~~---|
B|--3~~-----10~~-----3~~-----10~~--|
G|--4~~-----11~~-----4~~-----11~~--|
D|---------------------------------|
A|---------------------------------|
E|---------------------------------|

e|-----2-----2-----2------2---------|
B|-------3-----3-----3------3-------|
G|---4-----4-----4-----4------------|
D|----------------------------------|
A|----------------------------------|
E|----------------------------------|

e|-----9-------9-------9-------9----|
B|-------10------10------10------10-|
G|--11------11------11------11------|
D|----------------------------------|
A|----------------------------------|
E|----------------------------------|

e|-2~~-------2-0----------9~~-------|
B|-3~~-----------3-------10~~-------|
G|-4~~--------------4----11~~-------|
D|----------------------------------|
A|----------------------------------|
E|----------------------------------|

chorus
0:31
e|--7-7-7-7-7-7-7-7-------------------|
B|--7-7-7-7-7-7-7-7---7-7-7-7-7-7-7-7-|
G|--7-7-7-7-7-7-7-7---7-7-7-7-7-7-7-7-|
D|--9-9-9-9-9-9-9-9---7-7-7-7-7-7-7-7-|x2
A|--9-9-9-9-9-9-9-9---5-5-5-5-5-5-5-5-|
E|--7-7-7-7-7-7-7-7-------------------|

verse
0:45
e|--2-2-2-2-2-2-2-2-2-2-2-2-2-2-2-2---|
B|--3-3-3-3-3-3-3-3-3-3-3-3-3-3-3-3---|
G|--4-4-4-4-4-4-4-4-4-4-4-4-4-4-4-4---|
D|------------------------------------|
A|------------------------------------|
E|------------------------------------|

chorus
verse
chorus 

solo
1:46
e|-------------------------------10--p9---------------------------------------------------|
B|-----------------------------------------10------------------------------------3-2------|
G|-9-9-9--9-/11-4----/-7--9-/-11------------------11-----9----7---7-6--4--2-----------2---|
D|---------------------------------------------------------------------------4----------4-|
A|----------------------------------------------------------------------------------------|
E|----------------------------------------------------------------------------------------|

2:02
e|--2~----0-----0-----0---------9-~----10p9-----------------------------------------------|
B|--3~------3-----3------3------10~---------10---10/12--12/14--14/15-151515b15b15b151515--|
G|--4~--------4-----4-------4---11~-------------------------------------------------------|
D|----------------------------------------------------------------------------------------|
A|----------------------------------------------------------------------------------------|
E|----------------------------------------------------------------------------------------|

e|---------------------------------|
B|--14\10~~------------------------|
G|----------11~~-------11----9~~---|
D|---------------------------------|
A|---------------------------------|
E|---------------------------------|


chorus
verse




Добавлено: 07.04.2015
Вам также может быть интересно:
Другие материалы по этой песне:
  • Аккорды и текст

Страница создана 07.04.2015
http://primanota.ru/yast/yast-chords.htm
Привет, Гость.
Предлагаем пройти революционный курс по гитаре.
Подарок от PrimaNota.Ru, забирай!