PrimaNota.ru - самый крупный в мире бесплатный архив песенных текстов, аккордов, табулатур и нот


Yast - Stupid - таба, видео

Регистрация Запомнить меня
Войти через:  Facebook Google Twitter Vk Yandex Mail.ru

Yast - Stupid - таба, видео

Печатать
Просмотров: 87
Уроки эстрадного вокала в Санкт-Петербурге
YAST - Stupid
Tab by theFlavio


intro
e|--------------|
B|--12~----7~---|
G|--13~----8~---|x4
D|--14~----9~---|
A|--------------|
E|--------------|

verse
e|--------------------------------|
B|--12~----7~----14~----16--------|
G|--13~----8~----13~--------13~---|
D|--14~----9~----14~--------------|x4
A|--------------------------------|
E|--------------------------------|

chorus
e|----5---4---2------|
B|----5---4---2------|
G|----6---4---2------|
D|----7---6---4------|
A|----7---6---4------|
E|----5---4---2------|

e|---------|
B|---------|
G|----1~---|end with this
D|----2~---|
A|----2~---|
E|----0~---|

intro
verse
chorus

solo 1:59
e|------------------------------------------------------------------------|
B|------------------------------------------------------------------------|
G|-11/13~-----13-11-9-8--------13-11-9-8------------------------------///-|
D|-----------------------9----------------9----11~-----9\7~----9--7--6----|
A|------------------------------------------------------------------------|
E|------------------------------------------------------------------------|

e|-----------------------------------------------------------------|
B|-----------------------------------------------------------------|
G|-13~-----13-11-9-8~---------8-9-\6~-----6\4-----------4----------|
D|------------------------9--------------------6--4--------6-4-----|
A|---------------------------------------------------7---------7---|
E|-----------------------------------------------------------------|

chorus
Добавлено: 11.08.2015
Вам также может быть интересно:
Другие материалы по этой песне:
  • Аккорды и текст

Страница создана 11.08.2015
http://primanota.ru/yast/stupid-chords.htm
Привет, Гость.
Предлагаем пройти революционный курс по гитаре.
Подарок от PrimaNota.Ru, забирай!