PrimaNota.ru - самый крупный в мире бесплатный архив песенных текстов, аккордов, табулатур и нот


Yast - Believes - таба, видео

Регистрация Запомнить меня
Войти через:  Facebook Google Twitter Vk Yandex Mail.ru

Yast - Believes - таба, видео

Печатать
Просмотров: 134
Yast - Believes
Tab by theFlavio

intro 
        guitar 1
e|---2-----6-----4------|
B|---2-----6-----4------|
G|---3-----6-----4------|
D|---4-----8-----6------|
A|---4-----8-----6------|
E|---2-----6-----4------|


        guitar 2
0:02 
e|--------------------------------|
B|-11/14-11~----------------------|
G|-----------------11/13----------|
D|-----------------------13~------|
A|--------------------------------|
E|--------------------------------|

e|---2~---------2--2~~----------|
B|---2~---------2--2~-----------|
G|------------------------------|
D|------------------------------|
A|------------------------------|
E|------------------------------|


0:06
e|-----------------14-14-\--------|
B|-11/14-11~----------------------|
G|--------------------------------|
D|--------------------------------|
A|--------------------------------|
E|--------------------------------|

e|---2~---------2--2~~----------|
B|---2~---------2--2~-----------|
G|------------------------------|
D|------------------------------|
A|------------------------------|
E|------------------------------|

0:15
e|--------------------------------|
B|-11/14-11~----------------------|
G|-----------------11/13----------|
D|-----------------------13~------|
A|--------------------------------|
E|--------------------------------|

0:20
e|------------------------------------|
B|------------------------------------|
G|---11\10--6----6/8-6--4\3-----------|
D|------------8-------------4----4--6-|
A|-----------------------------6------|
E|------------------------------------|

e|------------------------------------|
B|--------7--7//9-11-11-11-11-11-11---|
G|------6-----------------------------|
D|--6h8-------------------------------|
A|------------------------------------|
E|------------------------------------|

e|------------------------------------|
B|------------------------------------|
G|---11\10--6----6/8-6--4\3-----------|
D|------------8-------------4----4--6-|
A|-----------------------------6------|
E|------------------------------------|

e|------------------------------------|
B|------7-6---------------------------|
G|----------6-------11----------------|
D|--6h8-------8-9999--999-------------|
A|------------------------------------|
E|------------------------------------|

0:33 guitar 1 strumming
e|-----2-------|
B|-----2-------|
G|-----3-------|
D|-----4-------|
A|-----4-------|
E|-----2-------|

0:46
e|---------------------------------|
B|---------------------------------|
G|--13-13-13-15-10-10-10-1010------|
D|---------------------------------|
A|---------------------------------|
E|---------------------------------|

verse
e|----11----9-----4----2-----------|
B|----11----9-----4----2-----------|
G|----11----9-----4----3-----------|
D|----13----11----6----4-----------|
A|----13----11----6----4-----------|
E|----11----9-----4----2-----------|


1:16
e|------------------------------------|
B|------------------------------------|
G|---11\10--6----6/8-6--4\3-----------|
D|------------8-------------4----4--6-|
A|-----------------------------6------|
E|------------------------------------|

e|------------------------------------|
B|-----------7-6----------------------|
G|-------6----------------------------|
D|--6h8-----------999999--------------|
A|------------------------------------|
E|------------------------------------|

e|------------------------------------|
B|------------------------------------|
G|---11\10--6----6/8-6--4\3-----------|
D|------------8-------------4----4--6-|
A|-----------------------------6------|
E|------------------------------------|

e|------------------------------------|
B|--------7--7//9-11-11-11-11-11-11---|
G|------6-----------------------------|
D|--6h8-------------------------------|
A|------------------------------------|
E|------------------------------------|

verse

e|------------------------------------|
B|------------------------------------|
G|---11\10--6----6/8-6--4\3-----------|
D|------------8-------------4----4--6-|
A|-----------------------------6------|
E|------------------------------------|

e|------------------------------------|
B|--------7--7//9-11-11-11-11-11-11---|
G|------6-----------------------------|
D|--6h8-------------------------------|
A|------------------------------------|
E|------------------------------------|

e|------------------------------------|
B|------------------------------------|
G|---11\10--6----6/8-6--4\3-----------|
D|------------8-------------4----4--6-|
A|-----------------------------6------|
E|------------------------------------|

e|------------------------------------|
B|-----------7-6----------------------|
G|-------6----------------------------|
D|--6h8-----------999999--------------|
A|------------------------------------|
E|------------------------------------|
 
break: play verse slowly

2:37
e|------------------------------------|
B|-14-11-14--11-11-111111111111111111-|
G|------------------------------------|
D|------------------------------------|
A|------------------------------------|
E|------------------------------------|

2:44
e|------------------------------------|
B|--12-111111111111111111111111111111-|
G|------------------------------------|
D|------------------------------------|
A|------------------------------------|
E|------------------------------------|

2:51
e|------------------------------------|
B|--2-2-2-2-2-2-2-2-2-2-2-2-2-2-2-2-2-|
G|------------------------------------|
D|------------------------------------|
A|------------------------------------|
E|------------------------------------|

2:58
e|------------------------------------|
B|-/7-7-7-7-7-7-7-7-7-7-7-7-7-7-7-7-7-|
G|------------------------------------|
D|------------------------------------|
A|------------------------------------|
E|------------------------------------|

end 
3:04
e|------------------------------------|
B|--9-9-9--11--6-6-6--6---/-7~--------|
G|------------------------------------|
D|------------------------------------|
A|------------------------------------|
E|------------------------------------|


Добавлено: 07.04.2015
Вам также может быть интересно:
Другие материалы по этой песне:
  • Аккорды и текст

Страница создана 07.04.2015
http://primanota.ru/yast/believes-chords.htm
Привет, Гость.
Предлагаем пройти революционный курс по гитаре.
Подарок от PrimaNota.Ru, забирай!