PrimaNota.ru - самый крупный в мире бесплатный архив песенных текстов, аккордов, табулатур и нот


Yashin - Get Loose - текст песни, таба, бас-таба, видео

Регистрация Запомнить меня
Войти через:  Facebook Google Twitter Vk Yandex Mail.ru

Yashin - Get Loose - текст песни, таба, бас-таба, видео

Печатать
Просмотров: 164

                            *** MattRevenger's Tab***
Band: Yashin
Song: Get Loose!
Album: Put Your Hands Where I Can See Them
Tuning: Drop C


Rythm Guitar
d-------------------------------|
a-------------------------------|
f-------------------------------|
C-4----7---0--------------------|
G-4----7---0--------------------|
C-4----7---0--77799999991197974-|

d--------------------------------|
a--------------------------------|
f--------------------------------|
C-4----7---0---------------------|
G-4----7---0---------------------|
C-4----7---0--777999979791197974-|

d--------------------------|
a--------------------------|
f--------------------------|
C--0-----4------0----2-----|
G--0-----4------0----2-----|
C--0-----4------0----2-----|


d--------------------------------|
a--------------------------------|
f--------------------------------|
C-4----7---0---------------------|
G-4----7---0---------------------|
C-4----7---0--777999979791197974-|

d----------------------------------------------------------------------------|
a----------------------------------------------------------------------------|
f11-9-6-14-13-14-13-13/14/13-11/9-11-16-18--11-9-6-14-13131313-13/14/13-11/9-|
C----------------------------------------------------------------------------|
G9--7-4-12-11-12-11-11/12/11-9-/7-9--14-16---9-7-4-12-11111111-11/12/11--9/7-|
C----------------------------------------------------------------------------|




d-------------------------------|
a-------------------------------|
f-------------------------------|
C--4/6/7-0--9/------------------|
G--4/6/7-0--9/------------------|
C--4/6/7-0--9/--9-11-9-7-9-7-4--|


d-------------------------------|
a-------------------------------|
f-------------------------------|
C-4----7---0--------------------|
G-4----7---0--------------------|
C-4----7---0--77799999991197974-|


d-------------------------------|
a-------------------------------|
f-------------------------------|
C-4----7---0--------------------|
G-4----7---0--------------------|
C-4----7---0--77799999991197974-|


d-------------------------------|
a-------------------------------|
f-------------------------------|
C--0-----4------0----2----------|
G--0-----4------0----2----------|
C--0-----4------0----2----------|


d-------------------------------|
a-------------------------------|
f-------------------------------|
C-4----7---0--------------------|
G-4----7---0--------------------|
C-4----7---0--77799999991197974-|

d----------------------------------------------------------------------------|
a----------------------------------------------------------------------------|
f11-9-6-14-13-14-13-13/14/13-11/9-11-16-18--11-9-6-14-13131313-13/14/13-11/9-|
C----------------------------------------------------------------------------|
G9--7-4-12-11-12-11-11/12/11-9-/7-9--14-16---9-7-4-12-11111111-11/12/11--9/7-|
C----------------------------------------------------------------------------|



d------------------------------|
a------------------------------|
f------------------------------|
C--4/6/7-0--9/---------------4-|
G--4/6/7-0--9/---------------4-|
C--4/6/7-0--9/--9-11-9-7-9-7-4-|


d------------------------------------------------------------|
a---3--------------------------------------------------------|
f---2--------------------------------------------------------|
C---0-----4--4--0--0-----2-----------7-9---------------------|
G---0-----4--4--0--0-----2-----------7-9---------------------|
C---0-----4--4--0--0-----2-----------7-9----9-11-9-7-9-7-4-/-|



d-------------------------------------|
a-------------------------------------|
f-------------------------------------|
C-4----7---0--------------------------|
G-4----7---0--------------------------|
C-4----7---0--77799999991197974-------|

d----------------------------------------------------------------------------|
a----------------------------------------------------------------------------|
f11-9-6-14-13-14-13-13/14/13-11/9-11-16-18--11-9-6-14-13131313-13/14/13-11/9-|
C----------------------------------------------------------------------------|
G9--7-4-12-11-12-11-11/12/11-9-/7-9--14-16---9-7-4-12-11111111-11/12/11--9/7-|
C----------------------------------------------------------------------------|


d-----------------------------------|
a-----------------------------------|
f-----------------------------------|
C---------------4------------4-4----|
G---------------4------------4-4----|
C--9-11-9-7-9-7-4----4444444-4-4----|


LEAD GUITAR

d-----------------------------------------------|
a-------------------------10-9h10p9-------------|
f---11--9---------------------------9--9/11/9---|
C---------11--11/14/11-9------------------------|
G-----------------------------------------------|
C-----------------------------------------------|



d---------------------------------------|
a---------------------------------------|
f---11-9--------------------------------|
C--------11/12/11-9--9------------------|
G------------------12-12-11-12--11-7-9--|
C---------------------------------------|




d------------------------------------------------|
a------------------------------------------------|
f------------9-11-11/9/11/9----------------------|
C---------------------------9/11/9------9--------|
G------------------------------------12--12-11-9-|
C---12-1212--------------------------------------|




d------------------------------------------------|
a---10-9-----------------------------------------|
f--------9---------------------------------------|
C----------9-7-6-6-7-6---------------------------|
G----------------------9-------------------------|
C------------------------------------------------|




d--------------------------------------------|
a--------------------------------------------|
f------------9-11-11/9/11/9------------------|
C--------------------------9/11/9---9--------|
G---------------------------------12-12-11-7-|
C---12-1212----------------------------------|




d-------------------------------------------|
a-------------------------------------------|
f-------------------------------------------|
C---9p0-7p0-6p0--------7-6------------------|
G----------------5-7-9-----9-7-9------------|
C-------------------------------------------|




Bridge

d--0------------0-------2---2---2------------------|
a-----2-------2---2-------5---5-----3p2-3p2-3p23p2-|
f-----------2--------------------------------------|
C---------0-----------4-----------2----------------|
G--------------------------------------------------|
C--------------------------------------------------|



d-------------------------------------------------|
a-------------------------------------------------|
f----11-9--6--14-131413--11-9-119-6---9--4/-------|
C-------------------------------------------------|
G----9--7--4--12-111211--9--7-9-7-4---7--2/-------|
C-------------------------------------------------|
Добавлено: 18.10.2013
Другие материалы по этой песне:

Страница создана 19.07.2012
http://primanota.ru/yashin/get-loose-chords.htm
Привет, Гость.
Предлагаем пройти революционный курс по гитаре.
Подарок от PrimaNota.Ru, забирай!