PrimaNota.ru - самый крупный в мире бесплатный архив песенных текстов, аккордов, табулатур и нот


Yardbirds - Smile On Me - текст песни, таба, видео

Регистрация Запомнить меня
Войти через:  Facebook Google Twitter Vk Yandex Mail.ru

Yardbirds - Smile On Me - текст песни, таба, видео

Печатать
Просмотров: 51
Авторы: Jimmy Page, Chris Dreja, Jim McCarty, Keith Relf

This is Smile on Me by the Yardbirds off their 1967 album little games to be honest the solo is a bit difficult
to distinguish all the notes so i left it out but if you're skilled enough to improvise the solo it's in G minor
have fun and lml rock on lml

Riff 1
           ~~~~~          
e|----------------|
B|----------------|
G|----------------|
D|----------------|
A|------5-3vvvv-5-|
E|--1s3-----------|

Riff 2
           ~~~~~          
e|------------------|
B|------------------|
G|------------------|
D|------------------|
A|------10-8vvvv-10-|
E|--6s8-------------|

Riff 3
            ~~~~~          
e|-------------------|
B|-------------------|
G|-------------------|
D|-------------------|
A|------12-10vvvv-12-|
E|--8s10-------------|

played in this order throughout the song 
Riff 1 x4
Riff 2 x2
Riff 1 x2
Riff 3 x1
Riff 2 x1
Riff 1 x2
Добавлено: 24.08.2015
Другие материалы по этой песне:
  • Аккорды и текст

Страница создана 18.07.2012
http://primanota.ru/yardbirds/smile-on-me-chords.htm
Привет, Гость.
Предлагаем пройти революционный курс по гитаре.
Подарок от PrimaNota.Ru, забирай!