PrimaNota.ru - самый крупный в мире бесплатный архив песенных текстов, аккордов, табулатур и нот


Yann Tiersen - Comptine Dun Autre Ete Lapres Midi - таба, видео

Регистрация Запомнить меня
Войти через:  Facebook Google Twitter Vk Yandex Mail.ru

Yann Tiersen - Comptine Dun Autre Ete Lapres Midi - таба, видео

Печатать
Просмотров: 506
Rythm guitar: 

E||-0----0----0----0---|--------------------|
H||---0----0----0----0-|-3----3----3----3---|
G||------0---------0---|---4----4----4----4-|
D||-2---------2--------|-0----5----0----5---|
A||--------------------|--------------------|
E||--------------------|--------------------|

E||--------------------|--------------------|
H||-3----3----3----3---|-3----3----3----3---|
G||---4----4----4----4-|---2----2----2----2-|
D||-0----4----0----4---|-0----4----0----4---|
A||--------------------|--------------------|
E||--------------------|--------------------|

Solo guitar:

E||------------|------------|------------|------
H||------0/1/0-|------------|------0/1/0-|------
G||------------|------0h2-0-|------------|------
D||-5/4/5------|-4/5/4------|-4/2/4------|-4/2/4
A||------------|------------|------------|------
H||------------|------------|------------|------

E||-0--|-----2---|-2---|-3-0-|-3---|-2---|-2---|
H||--0-|-3-0—--0-|-----|-0---|-0-3-|-0-3-|---3-|
G||----|---------|---2-|---0-|---0-|---4-|-2-4-|
D||----|---------|-----|-----|-----|-----|-----|
A||----|---------|-----|-----|-----|-----|-----|
E||----|---------|-----|-----|-----|-----|-----|

E||---7---7---7---7---------|---7---7---7---7----------|
H||--5---5---5---5----5—--5-|--------------------------|
G||-4---4---4---4---4-—-5---|--7---7---7---7----7---7--|
D||-------------------------|-9---9---9---9---9---7----|
A||-------------------------|--------------------------|
E||-------------------------|--------------------------|

E||---2---2---2---2---------|---5---5---5---5---------|
H||--0---0---0---0----0---0-|--3---3---3---3----3—--3-|
G||---------------------0---|-2---2---2---2---2-—-3---|
D||-4---4---4---4---4-------|-------------------------|
A||-------------------------|-------------------------|
E||-------------------------|-------------------------|

E||---7---7---7---7---------|---7---7---7---7----------|
H||--5---5---5---5----5—--5-|--------------------------|
G||-4---4---4---4---4-—-5---|--7---7---7---7----7---7--|
D||-------------------------|-9---9---9---9---9---7----|
A||-------------------------|--------------------------|
E||-------------------------|--------------------------|

E||---2---2---2---2---------|---5---5---5---5---5--|
H||--0---0---0---0----0---0-|--3---3---3---3---3—--|
G||---------------------0---|-2---2---2---2---2-—--|
D||-4---4---4---4---4-------|----------------------|
A||-------------------------|----------------------|
E||-------------------------|----------------------|

E||------7/8/7-|------3/5/3-|------7/8/7-|------
H||-8/7/8------|-7/8/7------|-7/5/7------|-7/5/7
G||------------|------------|------------|------
D||------------|------------|------------|------
A||------------|------------|------------|------
E||------------|------------|------------|------
Добавлено: 15.06.2012
Другие материалы по этой песне:
  • Аккорды и текст

Страница создана 15.06.2012
http://primanota.ru/yann-tiersen/comptine-dun-autre-ete-lapres-midi-chords.htm
Привет, Гость.
Предлагаем пройти революционный курс по гитаре.
Подарок от PrimaNota.Ru, забирай!