PrimaNota.ru - самый крупный в мире бесплатный архив песенных текстов, аккордов, табулатур и нот


Yamazaru - Kage Naruto Opening 17 - таба, видео

Регистрация Запомнить меня
Войти через:  Facebook Google Twitter Vk Yandex Mail.ru

Yamazaru - Kage Naruto Opening 17 - таба, видео

Печатать
Просмотров: 333
Уроки эстрадного вокала в Санкт-Петербурге
e-2---------2-2------------------------------------------2-----------------------------------------|
b---4-2p0-0-----4-2p0-0--0-0-2-0---2h4--0-0-2h4-2-4-4-4-4--2--2-0-2-0-2-0--0-----------------------|
g--------------------------------------------------------------------------------------------------|
d--------------------------------------------------------------------------------------------------|
a--------------------------------------------------------------------------------------------------|
E--------------------------------------------------------------------------------------------------|

e-------------------------------------------------------------------------------------------------------------|
b-------------------------------------------------------------------------------------------------------------|
g-4-6-8-8-8-6-6-6-4-4-4-4-4-4-4-4-4-4-4-4-4-4-4h6-4-4-4--4-4-4-4-4-4-6-4--4-4-4-4-4-4-4-6-4-4-4-4-4-4--3-3-4--|
d-------------------------------------------------------------------------------------------------------------|
a-------------------------------------------------------------------------------------------------------------|
E-------------------------------------------------------------------------------------------------------------|

e--------------------------------------------------------------------------------------------|
b-----------------------------------------------------------4/7------------------------------|
g-4-3-4-3--4-4-4-4-6--4-3-4-3-4--4-4-4-6/8--4-3-4-3-4-4-4-4-----4--4-4-4-4-4-3-3-4-----------|
d--------------------------------------------------------------------------------------------|
a--------------------------------------------------------------------------------------------|
E--------------------------------------------------------------------------------------------|

e---------2---------------------------------------------------------------------------------|
b-7-4-2p0---4-2p0-0--0-0-2-0-2h4-0-0-2-4-2-4--4--4-4-4-4--4-4-4-4-5-5-5-7-------------------|
g-------------------------------------------------------------------------------------------|
d-------------------------------------------------------------------------------------------|
a-------------------------------------------------------------------------------------------|
E-------------------------------------------------------------------------------------------|

e-------------------------------------------------------------------------------------------|
b-7-7-7-7-7-7-7-7-7-7/4--7-7-7-7-7-7-7-7-7-7-2p0--0-0-0-0-0-2-0--0-2-2-4-4-4-5-5-7/9-7------|
g-------------------------------------------------------------------------------------------|
d-------------------------------------------------------------------------------------------|
a-------------------------------------------------------------------------------------------|
e-------------------------------------------------------------------------------------------|

e-------------2-2------------------------------------------2-------------------|
b-7--4-2p0-0-----4-2p0-0--0-0-2-0---2h4--0-0-2h4-2-4-4-4-4--2--2-0-2-0-2-0--0--|
g------------------------------------------------------------------------------|
d------------------------------------------------------------------------------|
a------------------------------------------------------------------------------|
E------------------------------------------------------------------------------|
Добавлено: 21.11.2015
Другие материалы по этой песне:
  • Аккорды и текст

Страница создана 21.11.2015
http://primanota.ru/yamazaru/kage-naruto-opening-17-chords.htm
Привет, Гость.
Предлагаем пройти революционный курс по гитаре.
Подарок от PrimaNota.Ru, забирай!