PrimaNota.ru - самый крупный в мире бесплатный архив песенных текстов, аккордов, табулатур и нот


Yakoto - Yakotos Babyblues - бас-таба, видео

Регистрация Запомнить меня
Войти через:  Facebook Google Twitter Vk Yandex Mail.ru

Yakoto - Yakotos Babyblues - бас-таба, видео

Печатать
Просмотров: 95
Авторы музыки: Fidelis Amo-Antwi, Jennifer Yaa Akoto Kieck
Авторы текста: Jennifer Yaa Akoto Kieck
Y'akoto's Babyblues
Y'akoto
Babyblues

95bpm
4/4

     New Track                                                                  
     H       Q.    E          Q.    Q.    E    E        Q.    Q.    E    E      
G ||------------------------|*------------------------|-------------------------|
D ||------------------------|-------------------------|-------------------------|
A ||------------------------|-4-----2-----4----2------|-4-----2-----4----2------|
E ||---------------4--------|*------------------------|-------------------------|


    Q.    Q.    E    E        Q.    Q.    E    E        Q.    Q.    E    E      
  |-------------------------|------------------------*|-------------------------|
  |-------------------------|-------------------------|-2-----2-----2----2------|
  |-------1-----2-----------|-------1-----2-----------|-------------------------|
  |-4----------------2------|-4----------------4-----*|-------------------------|


    Q.    Q.    E    E        Q.    Q.    E    E        Q.    Q.    E    E      
  |-------------------------|-------------------------|-------------------------|
  |-------------------------|-2-----2-----2----2------|-------------------------|
  |-------------------------|-------------------------|-------------------------|
  |-4-----4-----4----4------|-------------------------|-4-----4-----4----4------|


    Q.    Q.    E    E        Q.    Q.    E    E        Q.    Q.    E    E      
  |-------------------------|-------------------------|-------------------------|
  |-2-----2-----2----2------|-------------------------|-------------------------|
  |-------------------------|-------------------------|-1-----1-----1----1------|
  |-------------------------|-4-----4-----4----4------|-------------------------|


    Q.    Q.    E    E      
  |-------------------------|
  |-------------------------|
  |-------------------------|
  |-4-----4-----4----4------|


+------------------------------------------+
| Duration Legend                          |
+------------------------------------------+
| W     | Whole note                       |
| H     | Half note                        |
| Q     | Quarter note                     |
| E     | Eighth note                      |
| S     | Sixteenth note                   |
| T     | Thirtysecond note                |
| X     | Sixtyfourth note                 |
| Q.    | Dotted quarter note              |
| |-n-| | n-tuplet                         |
+------------------------------------------+

Добавлено: 18.06.2015
Другие материалы по этой песне:
  • Аккорды и текст

Страница создана 18.06.2015
http://primanota.ru/yakoto/yakotos-babyblues-chords.htm
Привет, Гость.
Предлагаем пройти революционный курс по гитаре.
Подарок от PrimaNota.Ru, забирай!