PrimaNota.ru - самый крупный в мире бесплатный архив песенных текстов, аккордов, табулатур и нот


Yage - Save The Fear Slave - таба, видео

Регистрация Запомнить меня
Войти через:  Facebook Google Twitter Vk Yandex Mail.ru

Yage - Save The Fear Slave - таба, видео

Печатать
Просмотров: 64
Уроки эстрадного вокала в Санкт-Петербурге
e|---------8------------8------------10------------10---|
B|----8------------8------------8-------------8---------|
G|-11---11---9--11---11---9--11---11----9--11---11----9-|
D|------------------------------------------------------| 1,3
A|------------------------------------------------------|
E|------------------------------------------------------|

e|----------------------------------------------|
B|--------7----------7----------7------------5--|
G|----------9----9-----9----9-----9----0---0----|
D|-10--10------9---9------7---7------4---4------| 2
A|----------------------------------------------|
E|----------------------------------------------|

e|-----------------------------------|
B|--------7----------7----------7----|
G|----------9----9-----9----9-----9--|
D|-10--10------9---9------7---7------| 4
A|-----------------------------------|
E|-----------------------------------|

    e|----------|
    B|------7---|
GTR G|--------9-|
 1  D|-9--9-----| x8
    A|----------|
    E|----------|

    e|-0-0-0-0-0-0-0-0-0-0-0-0-0-0-0-|
    B|-0-0-0-0-0-0-0-0-0-0-0-0-0-0-0-|
GTR G|-0-0-0-0-0-0-0-0-0-0-0-0-0-0-0-| play for the duration of the GTR 1 part.
 2  D|-2-2-2-2-2-2-2-2-2-2-2-2-2-2-2-|
    A|-2-2-2-2-2-2-2-2-2-2-2-2-2-2-2-|
    E|-------------------------------|

    e|-1212121212121212121212-|
    B|------------------------|
GTR G|------------------------|
 1  D|------------------------|
    A|------------------------|
    E|------------------------|
       PMPMPMPMPMPMPMPMPMPMPM

    e|------------------------|
    B|-5-------3------5-------|
GTR G|------------------------|
 2  D|------------------------|
    A|-3-------3------3-------|
    E|------------------------|

---------------------------------------------------

    e|------------------------------------|
    B|------------------------------------|
GTR G|------------------/5-(hold note)----|
 1  D|-2h5p2----2h5p2---------------------|
    A|------------------------------------|
    E|-------0--------0-------------------|

    e|------------------------------------|
    B|----------------------/8--7--7\-3-3-|
GTR G|-9-9-9-9-9-9-9-9-9------------------|
 2  D|------------------------------------|
    A|-7-7-7-7-7-7-7-7-7------------------|
    E|------------------------------------|

    e|------------------------------------|
    B|------------------------------------|
GTR G|------------------/2-(hold note)----|
 1  D|-2h5p2----2h4p2---------------------|
    A|------------------------------------|
    E|-------0--------0-------------------|

    e|------------------------------|
    B|-3---3-(hold note)------------|
GTR G|----------------------5--2--4-|
 2  D|------------------------------|
    A|------------------------------|
    E|------------------------------|

repeat section x4
------------------------------------------------------

    e|------------------------|
    B|------------------------|
GTR G|------------------------|
 1  D|-2h5p2----2h5p2---------| x3
    A|-------------------2--2-|
    E|-------0--------0--0--0-|

    e|------------------------|
    B|------------------------|
GTR G|-9-9-9-9-9-9-9-9-9------|
 2  D|------------------------| x3
    A|-7-7-7-7-7-7-7-7-7--2-2-|
    E|--------------------0-0-|

    e|---------------------|
    B|---------------------|
GTR G|---------------------|
 1  D|-2h5p2----2h5p2------| 
    A|-------------------2-|
    E|-------0--------0--0-|

    e|----------------------|
    B|----------------------|
GTR G|-9-9-9-9-9-9-9-9-9----|
 2  D|----------------------| 
    A|-7-7-7-7-7-7-7-7-7--2-|
    E|--------------------0-|

    e|-----------------------------------------|
    B|-----------------------------------------|
GTR G|-99-9-99-9-99-9-99-9-44-4-44-4-55-5-55-5-|
 1  D|-----------------------------------------| x4
    A|-77-7-77-7-77-7-77-7-22-2-22-2-33-3-33-3-|
    E|-----------------------------------------|

    e|-------------------------------------|
    B|------------7------------------------|
GTR G|-99-9-99-9-----7--------7---------7--|
 2  D|------------------9--9-----9--10-----| x4
    A|-77-7-77-7---------------------------|
    E|-------------------------------------|

    e|------3------------|
    B|-------------------|
GTR G|-------------4-----|
 1  D|----5----------5---| x4
    A|-3--------2--------|
    E|-------------------|

    e|-------------------|
    B|-------------------|
GTR G|-5--4------5--4----|
 2  D|-------5---------5-| x4
    A|-------------------|
    E|-------------------|

    e|---------3--------------|
    B|---------3----------3---|
GTR G|-5--4----4---5--4---4---|
 1  D|-------5-5--------5-5---| x4
    A|--------------------2---|
    E|------------------------|

    e|-----------------------------|
    B|---------------8-------------|
GTR G|-5--4----4--5----5-4----4----|
 2  D|-------5-------------5-----5-| x4
    A|-----------------------------|
    E|-----------------------------|

e|-------------|
B|--------7----|
G|-4------7----|
D|-5------4----| x4
A|-3-----------|
E|-------------|

    e|-1212121212121212121212-|
    B|------------------------|
GTR G|------------------------|
 1  D|------------------------|
    A|------------------------|
    E|------------------------|
       PMPMPMPMPMPMPMPMPMPMPM

    e|------------------------|
    B|-5-------3------5-------|
GTR G|------------------------|
 2  D|------------------------|
    A|-3-------3------3-------|
    E|------------------------|

    e|-1212121212121212121212-|
    B|------------------------|
GTR G|------------------------|
 1  D|------------------------| 
    A|------------------------|
    E|------------------------|
       PMPMPMPMPMPMPMPMPMPMPM

    e|-1212121212121212121212---------------------------|
    B|--------------------------------10p8---------10p8-|
GTR G|--------------------------------------------------|
 1  D|------------------------9h10h12------9h10h12------| x4 
    A|--------------------------------------------------|
    E|--------------------------------------------------|
       PMPMPMPMPMPMPMPMPMPMPM

    e|---------------------------------------------------------|
    B|-------------------------------12-12-12-121212-7-7-7-777-|
GTR G|-------12h16-14-------12h16-14-11-11-11-111111-7-7-7-777-|
 2  D|-10h14----------10h14----------9--9--9--9-9-9--9-9-9-999-| x4
    A|---------------------------------------------------------|
    E|---------------------------------------------------------|

    e|-------------------------------------------------------|
    B|---------10h12---------10h12-12-12-12-121212-7-7-7-777-|
GTR G|-----------------------------11-11-11-111111-7-7-7-777-|
 1  D|-9h10h12-------9h10h12-------9--9--9--9-9-9--9-9-9-999-| x4
    A|-------------------------------------------------------|
    E|-------------------------------------------------------|

    e|---------------------------------------------------------|
    B|-------------------------------12-12-12-121212-7-7-7-777-|
GTR G|-------12h16-14-------12h16-14-11-11-11-111111-7-7-7-777-|
 2  D|-10h14----------10h14----------9--9--9--9-9-9--9-9-9-999-| x4
    A|---------------------------------------------------------|
    E|---------------------------------------------------------|

    e|-----------------------------------------------------------------|
    B|---------12p10p8---------12p10p8---------12p10p8---------12p10p8-|
GTR G|-----------------------------------------------------------------|
 1  D|-9h10h12---------9h10h12---------9h10h12---------9h10h12---------| x4
    A|-----------------------------------------------------------------|
    E|-----------------------------------------------------------------|

    e|-----------------------------------------------------------------|
    B|-----------------------------------------------------------------|
GTR G|-4--4--4--4--4--4--4--4--4--4--4-12-12-12-12-12--11-11-11-11-11--|
 2  D|-5--5--5--5--5--5--5--5--5--5--5---------------------------------| x4
    A|-3--3--3--3--3--3--3--3--3--3--3-10-10-10-10-10--9--9--9--9--9---|
    E|-----------------------------------------------------------------|

    e|-----------------------------------------------------------------|
    B|---------12p10p8---------12p10p8---------12p10p8---------12p10p8-|
GTR G|-----------------------------------------------------------------|
 1  D|-9h10h12---------9h10h12---------9h10h12---------9h10h12---------| x2
    A|-----------------------------------------------------------------|
    E|-----------------------------------------------------------------|

    e|-----------------------------------------------------------------|
    B|-----------------------------------------------------------------|
GTR G|-4-------------------------------12--------------11--------------|
 2  D|-5---------------------------------------------------------------| x2
    A|-3-------------------------------10--------------9---------------|
    E|-----------------------------------------------------------------|

    e|-----------------------------------------------------------------|
    B|---------12p10p8---------12p10p8---------12p10p8---------12p10p8-|
GTR G|-----------------------------------------------------------------|
 1  D|-9h10h12---------9h10h12---------9h10h12---------9h10h12---------| x4
    A|-----------------------------------------------------------------|
    E|-----------------------------------------------------------------|

    e|-----------------------------------------------------------------|
    B|-----------------------------------------------------------------|
GTR G|-4--4--4--4--4--4--4--4--4--4--4-12-12-12-12-12--11h12-11h12-11--|
 2  D|-5--5--5--5--5--5--5--5--5--5--5---------------------------------| x4
    A|-3--3--3--3--3--3--3--3--3--3--3-10-10-10-10-10------------------|
    E|-----------------------------------------------------------------|

e|-------------------------|
B|-------------------------|
G|-------------------------|
D|-------------------------|
A|-9h10-(play for a while)-|
E|-------------------------|

e|-------------------------|
B|-------------------------|
G|-4-----------------------|
D|-5-(ring out)------------|
A|-3-----------------------|
E|-------------------------|

Just bass + drums, then finish.
Добавлено: 07.12.2015
Другие материалы по этой песне:
  • Аккорды и текст

Страница создана 07.12.2015
http://primanota.ru/yage/save-fear-slave-chords.htm
Привет, Гость.
Предлагаем пройти революционный курс по гитаре.
Подарок от PrimaNota.Ru, забирай!