PrimaNota.ru - самый крупный в мире бесплатный архив песенных текстов, аккордов, табулатур и нот


Xyz - Inside Out - таба, видео

Регистрация Запомнить меня
Войти через:  Facebook Google Twitter Vk Yandex Mail.ru

Xyz - Inside Out - таба, видео

Печатать
Просмотров: 173
The verse riffs are hard to tab out because of the random fills but the basic idea is there


Intro/ Chorus
----------------------------------------------------------------|
----------------10---9---7---7-----7p5-----5---------5-----5h7--|
--7h9-----9-----9----9---7---7-----7p6-----6---------6-----6h7--|
--7h9-----9-----9----9---7---7-----7-------7---------7-----7----|
--7-------7-----7----7-----0---0-0-----0-0---0-0-0-0---0-0------|
--0---0-0---0-0----0---0----------------------------------------|
  .   . .   . .    .   .   .   . .     . .   . . . .   . .

Natural Harmonic Fill before the verse kicks in

e 5     7
b   5  7
g     7   5
d          5


Verse
 E                                 A
----------------------------------------------------------------------|
----------------------------------------------------------------------|
-----------------------------------0h2-----2---------2-----0h2p0------|
-0h2-----2---------2-----2p0-------0h2-----2---------2----------0h2p0-|
-0h2-----2---------2-----2p0-----------0-0---0-0-0-0---0-0------------|
-----0-0---0-0-0-0---0-0-----3brp0------------------------------------|
     . .   . . . .   . .               . .   . . . .   . .
That's the basic idea of the verse and it just repeats back and forth from E-A, it's up 
you to figure the fills
Добавлено: 22.07.2012
Другие материалы по этой песне:

Страница создана 29.04.2012
http://primanota.ru/xyz/inside-out-chords.htm
Привет, Гость.
Предлагаем пройти революционный курс по гитаре.
Подарок от PrimaNota.Ru, забирай!