PrimaNota.ru - самый крупный в мире бесплатный архив песенных текстов, аккордов, табулатур и нот


Xy - Walking On Solid Ground - таба, бас-таба, видео

Регистрация Запомнить меня
Войти через:  Facebook Google Twitter Vk Yandex Mail.ru

Xy - Walking On Solid Ground - таба, бас-таба, видео

Печатать
Просмотров: 109
                        XY - Walking on solid ground 
                            

tabbed by: JL Ducroiset
email    : jl@xyofficial.com
website  : www.xyofficial.com
Facebook : XYofficial
Twitter  : XYrock 
Video    : http://youtu.be/w5npOq7ibkQ


Notation:                                

  b      : bend 
  r      : release (after a bend)
  h      : hammer-on
  p      : pull-off                                 
  \      : slide down               
  /      : slide up                 
  ~      : vibrato
  x      : mute note
  P.M.___: palm mute
  A.H    : artificial harmonic


BPM: 160

Special tuning, the 6th string will be tuned in A (low):
A A D G B e
(If you have a 7 string: A E A G D B e. You can use this tab, don't play the E string
except in power chords using the 7 string)


Intro :

(1 guitar)
  Dm
e|---------------------------------|---------------------------------|                        
B|---------------------------------|---------------------------------|
G|-/7------------------------------|-/9-------------10---------------|
D|---------------------------------|---------------------------------| 
A|---------------------------------|---------------------------------|
A|---------------------------------|---------------------------------|


  Bb
e|---------------------------------|---------------------------------|                        
B|---------------------------------|---------------------------------|
G|-\6~-----------------------------|---------------------------------|
D|---------------------------------|-/8-------------7-b-8---r--------| 
A|---------------------------------|---------------------------------|
A|---------------------------------|---------------------------------|


  Dm
e|---------------------------------|---------------------------------|                        
B|---------------------------------|---------------------------------|
G|-/7------------------------------|-/9-------------10---------------|
D|---------------------------------|---------------------------------| 
A|---------------------------------|---------------------------------|
A|---------------------------------|---------------------------------|


  Bb
e|---------------------------------|---------------------------------|                        
B|---------------------------------|---------------------------------|
G|-\12-----------------------------|-12b14r-b------------------------|
D|---------------------------------|---------------------------------| 
A|---------------------------------|---------------------------------|
A|---------------------------------|---------------------------------|


(2 guitars)
  Dm
e|---------------------------------|---------------------------------|                        
B|---------------------------------|---------------------------------|
G|-/10-----------------------------|-/12-----------/14---------------|
D|---------------------------------|---------------------------------| 
A|---------------------------------|---------------------------------|
A|---------------------------------|---------------------------------|
 |
 |
e|---------------------------------|---------------------------------|                        
B|---------------------------------|---------------------------------|
G|-/7------------------------------|-/9------------/10---------------|
D|---------------------------------|---------------------------------| 
A|---------------------------------|---------------------------------|
A|---------------------------------|---------------------------------|


  Bb
e|---------------------------------|---------------------------------|                        
B|---------------------------------|---------------------------------|
G|-\9~-----------------------------|---------------------------------|
D|---------------------------------|-/12------------11b12---r--------| 
A|---------------------------------|---------------------------------|
A|---------------------------------|---------------------------------|
 |
 |
e|---------------------------------|---------------------------------|                        
B|---------------------------------|---------------------------------|
G|-\6~-----------------------------|---------------------------------|
D|---------------------------------|-/8-------------7-b-8---r--------| 
A|---------------------------------|---------------------------------|
A|---------------------------------|---------------------------------|


  Dm
e|---------------------------------|---------------------------------|                        
B|---------------------------------|---------------------------------|
G|-/10-----------------------------|-/12-----------/14---------------|
D|---------------------------------|---------------------------------| 
A|---------------------------------|---------------------------------|
A|---------------------------------|---------------------------------|
 |
 |
e|---------------------------------|---------------------------------|                        
B|---------------------------------|---------------------------------|
G|-/7------------------------------|-/9------------/10---------------|
D|---------------------------------|---------------------------------| 
A|---------------------------------|---------------------------------|
A|---------------------------------|---------------------------------|


  Bb
e|---------------------------------|---------------------------------|--                        
B|---------------------------------|---------------------------------|--
G|-14b15r-b~-----------------------|--17-----b------18-------b-------|19~
D|---------------------------------|-x-------------------------------|-- 
A|---------------------------------|x--------------------------------|--
A|---------------------------------|---------------------------------|--
 |
 |
e|---------------------------------|---------------------------------|--                        
B|---------------------------------|---------------------------------|--
G|-10b12r-b~-----------------------|--12-----b------14---------------|14~
D|---------------------------------|-x-------------------------------|-- 
A|---------------------------------|x--------------------------------|--
A|---------------------------------|---------------------------------|--



Verse 1 : (both guitars play same riff)
part 1 :

  Dm  "I'm done..."
e|---------------------------------|---------------------------------|                        
B|---------------------------------|---------------------------------|
G|---------------------------------|---------------------------------|
D|---------------------------------|---------------------------------| 
A|---------------------------------|---------------------------------|
A|-8-5-5-5-5-5-7-5-5-5-5-5-8-5-5-5-|---------------------------------|
  P.M.____________________________

  Bb
e|---------------------------------|---------------------------------|                        
B|---------------------------------|---------------------------------|
G|---------------------------------|---------------------------------|
D|---------------------------------|---------------------------------| 
A|---------------------------------|---------------------------------|
A|-3-1-1-1-1-1-3-1-1-1-1-1-3-1-1-1-|-----------0----8~---------------|
  P.M.____________________________            ___  A.H

  Dm
e|---------------------------------|---------------------------------|                        
B|---------------------------------|---------------------------------|
G|---------------------------------|---------------------------------|
D|---------------------------------|---------------------------------| 
A|---------------------------------|---------------------------------|
A|-8-5-5-5-5-5-7-5-5-5-5-5-8-5-5-5-|-5-5-7-5-5-5-5-5-8-5-5-5-7-5-5-5-|
  P.M.______________________________________________________________

  Bb
e|---------------------------------|---------------------------------|                        
B|---------------------------------|---------------------------------|
G|---------------------------------|---------------------------------|
D|---------------------------------|---------------------------------| 
A|---------------------------------|---------------------------------|
A|-3-1-1-1-1-1-3-1-1-1-1-1-3-1-1-1-|-----------0----8~---------------|
  P.M.____________________________            ___  A.H


part 2 :

  Dm  "Drown..."
e|---------------------------------|---------------------------------|                        
B|---------------------------------|---------------------------------|
G|---------------------------------|---------------------------------|
D|-7-----------7-----------7-------|-----7-----------8-------7-------| 
A|-----5-----------5-----------5---|---------5-----------------------|
A|---------5-----------5-----------|-5-----------5-------5-------5---|
  P.M.______________________________________________________________

  Bb
e|---------------------------------|---------------------------------|                        
B|---------------------------------|---------------------------------|
G|---------------------------------|---------------------------------|
D|-3-----------3-----------3-------|---------------------------------| 
A|-----1-----------1---------------|---------------------------------|
A|---------1-----------1-------1---|-----------0----4~---------------|
  P.M.___________________________             ___   A.H


  Dm
e|---------------------------------|---------------------------------|                        
B|---------------------------------|---------------------------------|
G|-----------------7---------------|-9---------------10--------------|
D|-7---------------7---------------|-7---------------7---------------| 
A|-5---5---5---5-------5---5---5---|-----5---5---5-------5---5---5---|
A|-5---5---5---5-------5---5---5---|-----5---5---5-------5---5---5---|    
      P.M._______     ___________       ___________     __________

  Bb
e|---------------------------------|---------------------------------|                        
B|---------------------------------|---------------------------------|
G|-----------------3---------------|-5---------------3---------------|
D|-3---------------3---------------|-3---------------3---------------| 
A|-1---1---1---1-------1---1---1---|-----1---1---1-------1---1---1---|
A|-1---1---1---1-------1---1---1---|-----1---1---1-------1---1---1---|
      P.M._______     ___________       ___________     __________


  Dm
e|---------------------------------|---------------------------------|                        
B|---------------------------------|---------------------------------|
G|---------------------------------|---------------------------------|
D|---------------------------------|---------------------------------| 
A|---------------------------------|---------------------------------|
A|-8-5-5-5-5-5-7-5-5-5-5-5-8-5-5-5-|---------------------------------|
  P.M.____________________________


  Dm
e|---------------------------------|-------------------------------------|                        
B|---------------------------------|-------------------------------------|
G|---------------------------------|-------------------------------------|
D|---------------------------------|-------------------------------------| 
A|---------------------------------|-------------------------------------|
A|-8-5-5-5-5-5-7-5-5-5-5-5-8-5-5-5-|-8-8-8-8-7-7-7-7-4-4-4-4-10-10-10-10-|
  P.M.__________________________________________________________________



Hook : x2 (2 different guitar riffs)

  Dm  "But I must blame myself..."
e|---------------------------------|---------------------------------|                        
B|---------------------------------|---------------------------------|
G|-7---7---7---7---7---7---7---7---|-6---6---6---6---6---6---6---6---|
D|-8---8---8---8---8---8---8---8---|-7---7---7---7---7---7---7---7---| 
A|---------------------------------|---------------------------------|
A|---------------------------------|---------------------------------|
 |
 |
e|---------------------------------|---------------------------------|                        
B|---------------------------------|---------------------------------|
G|-7-----------7-----------7-------|-----7-----------7---------------|
D|-7-----------7-----------7-------|-----7-----------7---------------| 
A|-5---------------x---x---5-------|---------x---x---5--------x---x--|
A|-5---------------x---x---5-------|---------x---x---5--------x---x--|



e|---------------------------------|---------------------------------|                        
B|---------------------------------|---------------------------------|
G|-3---3---3---3---3---3---3-/-5-\-|-2---2---2---2---2---2---2---2---|
D|-5---5---5---5---5---5---5-/-7-\-|-3---3---3---3---3---3---3---3---| 
A|---------------------------------|---------------------------------|
A|---------------------------------|---------------------------------|
 |
 |
e|---------------------------------|---------------------------------|                        
B|---------------------------------|---------------------------------|
G|-7-----------7-----------7-------|-----7-----------7---------------|
D|-7-----------7-----------7-------|-----7-----------7---------------| 
A|-5---------------x---x---5-------|---------x---x---5--------x---x--|
A|-5---------------x---x---5-------|---------x---x---5--------x---x--|


  A
e|---------------------------------|---------------------------------|                        
B|---------------------------------|---------------------------------|
G|-2---2---2---2---2---2---2---2---|-2---2---2---2---2---2---2---2---|
D|-2---2---2---2---2---2---2---2---|-2---2---2---2---2---2---2---2---| 
A|---------------------------------|---------------------------------|
A|---------------------------------|---------------------------------|
 |
 |
e|---------------------------------|---------------------------------|                        
B|---------------------------------|---------------------------------|
G|---------------------------------|---------------------------------|
D|-3-p-2-------2-----------3-p-2---|-----2-----------2-h-3---3-h-5---| 
A|-0-----------0-----------0-------|-----0-----------0-------0-------|
A|---------0-----------0-----------|-0-----------0-------------------|
          P.M.        ___           ___         ___


e|---------------------------------|---------------------------------|                        
B|---------------------------------|---------------------------------|
G|-2---2---2---2---2---2---2---2---|-2---2---2---2-/-3---3-/-5---5-/-|
D|-2---2---2---2---2---2---2---2---|-2---2---2---2-/-3---3-/-5---5-/-| 
A|---------------------------------|---------------------------------|
A|---------------------------------|---------------------------------|
 |
 |
e|---------------------------------|---------------------------------|                        
B|---------------------------------|---------------------------------|
G|---------------------------------|---------------------------------|
D|-3-p-2-------2-----------3-p-2---|-----2-----------2-h-3---3-h-5---| 
A|-0-----------0-----------0-------|-----0-----------0-------0-------|
A|---------0-----------0-----------|-0-----------0-------------------|
          P.M.        ___           ___         ___



Verse 2 :
part 1 :

 Dm  "You're a big boy now..."
e|---------------------------------|---------------------------------|                        
B|---------------------------------|---------------------------------|
G|---------------------------------|---------------------------------|
D|---------------------------------|---------------------------------| 
A|---------------------------------|---------------------------------|
A|-8-5-5-5-5-5-7-5-5-5-5-5-8-5-5-5-|---------------------------------|
  P.M.____________________________

  Bb
e|---------------------------------|---------------------------------|                        
B|---------------------------------|---------------------------------|
G|---------------------------------|---------------------------------|
D|---------------------------------|---------------------------------| 
A|---------------------------------|---------------------------------|
A|-3-1-1-1-1-1-3-1-1-1-1-1-3-1-1-1-|-----------0----8~---------------|
  P.M.____________________________            ___  A.H


*: better if played by 2nd guitar.
  Dm
e|---------------------------------|-----------/----17~--------------|                        
B|---------------------------------|-----------/---*18~--------------|
G|---------------------------------|---------------------------------|
D|---------------------------------|---------------------------------| 
A|---------------------------------|---------------------------------|
A|-8-5-5-5-5-5-7-5-5-5-5-5-8-5-5-5-|---------------------------------|
  P.M.____________________________

  Bb                                               *18 (1st string)
e|---------------------------------|-----------/----22~--------------|                        
B|---------------------------------|---------------------------------|
G|---------------------------------|---------------------------------|
D|---------------------------------|---------------------------------| 
A|---------------------------------|---------------------------------|
A|-3-1-1-1-1-1-3-1-1-1-1-1-3-1-1-1-|---------------------------------|
  P.M.____________________________


part 2 :

  Dm  "Drown..."
e|---------------------------------|---------------------------------|                        
B|---------------------------------|---------------------------------|
G|---------------------------------|---------------------------------|
D|-7---7---7---7---7---7---7---7---|-7---7---7---7---7---7---7---7---| 
A|-5---5---5---5---5---5---5---5---|-7---7---7---7---7---7---7---7---|
A|---------------------------------|---------------------------------|
 | P.M.______________________________________________________________
 |
e|---------------------------------|---------------------------------|                        
B|---------------------------------|---------------------------------|
G|---------------------------------|---------------------------------|
D|---------------------------------|---------------------------------| 
A|-8---8---8---8---8---8---8---8---|-10--10--10--10--10--10--10--10--|
A|---------------------------------|---------------------------------|
  P.M.______________________________________________________________



e|---------------------------------|---------------------------------|                        
B|---------------------------------|---------------------------------|
G|---------------------------------|---------------------------------|
D|-7---7---7---7---7---7---7---7---|-8---8---8---8-------------------| 
A|-8---8---8---8---8---8---8---8---|-10--10--10--10------------------|
A|---------------------------------|------------------4~-------------|
 |P.M._____________________________________________  A.H.
 |
e|---------------------------------|---------------------------------|                        
B|---------------------------------|---------------------------------|
G|---------------------------------|---------------------------------|
D|---------------------------------|---------------------------------| 
A|-12--12--12--12--12--12--12--12--|-13--13--13--13------------------|
A|---------------------------------|------------------4~-------------|
  P.M._____________________________________________
 



  Dm
e|---------------------------------|---------------------------------|                        
B|---------------------------------|---------------------------------|
G|-----------------7---------------|-9---------------10--------------|
D|-7---------------7---------------|-7---------------7---------------| 
A|-5---5---5---5-------5---5---5---|-----5---5---5-------5---5---5---|
A|-5---5---5---5-------5---5---5---|-----5---5---5-------5---5---5---|    
      P.M._______     ___________       ___________     __________

  Bb
e|---------------------------------|---------------------------------|                        
B|---------------------------------|---------------------------------|
G|-----------------3---------------|-5---------------3---------------|
D|-3---------------3---------------|-3---------------3---------------| 
A|-1---1---1---1-------1---1---1---|-----1---1---1-------1---1---1---|
A|-1---1---1---1-------1---1---1---|-----1---1---1-------1---1---1---|
      P.M._______     ___________       ___________     __________


Hook x2


Post-hook :

  Bb  "If anytime..."
e|---------------------------------|---------------------------------|                        
B|---------------------------------|---------------------------------|
G|-10--7---7---7-------7-/-10-\-7--|-7---7-------7---7-/-9---9-/-10--|
D|---------------------------------|---------------------------------| 
A|-8---5---5---5-------5-/-8--\-5--|-5---5-------5---5-/-7---7-/-8---|
A|---------------------------------|---------------------------------|
 |
 |
e|---------------------------------|---------------------------------|                        
B|-3------------3----------3-------|-----3-----------3-----------3---|
G|-3------------3----------3-------|-----3-----------3-----------3---|
D|-3------------3--x---x---3-------|-----3-----------3-----------3---| 
A|-1---------------x---x---1-------|-----------------1---------------|
A|---------------------------------|---------------------------------|



e|---------------------------------|---------------------------------|                        
B|---------------------------------|---------------------------------|
G|-10\-7---7---7-------7-/-10-\-7--|-7---7-------7---7-/-9---9---9---|
D|---------------------------------|---------------------------------| 
A|-8-\-5---5---5-------5-/-8--\-5--|-5---5-------5---5-/-7---7---7---|
A|---------------------------------|---------------------------------|
 |
 |
e|---------------------------------|---------------------------------|                        
B|-3------------3----------3-------|-----3-----------3-----------3---|
G|-3------------3----------3-------|-----3-----------3-----------3---|
D|-3------------3--x---x---3-------|-----3-----------3-----------3---| 
A|-1---------------x---x---1-------|-----------------1---------------|
A|---------------------------------|---------------------------------|


  C
e|---------------------------------|---------------------------------|                        
B|---------------------------------|---------------------------------|
G|-9-\-5---5---5-------5-/-9-\-5---|-5---5-------5---5-/-9---9~------|
D|---------------------------------|---------------------------------| 
A|-7-\-3---3---3-------3-/-7-\-3---|-3---3-------3---3-/-7---7~------|
A|---------------------------------|---------------------------------|
 |
 |
e|---------------------------------|---------------------------------|                        
B|-5------------5----------5-------|-----5-----------5-----------5---|
G|-5------------5----------5-------|-----5-----------5-----------5---|
D|-5------------5--x---x---5-------|-----5-----------5-----------5---| 
A|-3---------------x---x---3-------|-----------------3---------------|
A|---------------------------------|---------------------------------|

  
 Am
e|---------------------------------|---------------------------------|                        
B|---------------------------------|---------------------------------|
G|-9-\-5---5---5-------5-/-9-\-5---|-5---5-------5---5-/-9---9-/-10--|
D|---------------------------------|---------------------------------| 
A|-7-\-3---3---3-------3-/-7-\-3---|-3---3-------3---3-/-7---7-/-8---|
A|---------------------------------|---------------------------------|
 |
 |
e|---------------------------------|---------------------------------|                        
B|-1------------1----------1-------|-----1-----------1-----------1---|
G|-2------------2----------2-------|-----2-----------2-----------2---|
D|-2------------2--x---x---2-------|-----2-----------2-----------2---| 
A|-0---------------x---x---0-------|-----------------0---------------|
A|---------------------------------|---------------------------------|


  Bb
e|---------------------------------|---------------------------------|                        
B|---------------------------------|---------------------------------|
G|-10\-7---7---7-------7-/-10-\-7--|-7---7-------7---7-/-9---9-/-12--|
D|---------------------------------|---------------------------------| 
A|-8-\-5---5---5-------5-/-8--\-5--|-5---5-------5---5-/-7---7-/-10--|
A|---------------------------------|---------------------------------|
 |
 |
e|---------------------------------|---------------------------------|                        
B|-3------------3----------3-------|-----3-----------3-----------3---|
G|-3------------3----------3-------|-----3-----------3-----------3---|
D|-3------------3--x---x---3-------|-----3-----------3-----------3---| 
A|-1---------------x---x---1-------|-----------------1---------------|
A|---------------------------------|---------------------------------|


e|---------------------------------|---------------------------------|                        
B|---------------------------------|---------------------------------|
G|-12\-10--10--10------10/-12-\-10-|-10--10------10--10/-12--12~-----|
D|---------------------------------|---------------------------------| 
A|-10\-8---8---8-------8-/-10-\-8--|-8---8-------8---8-/-10--10~-----|
A|---------------------------------|---------------------------------|
 |
 |
e|---------------------------------|---------------------------------|                        
B|-3------------3----------3-------|-----3-----------3-----------3---|
G|-3------------3----------3-------|-----3-----------3-----------3---|
D|-3------------3--x---x---3-------|-----3-----------3-----------3---| 
A|-1---------------x---x---1-------|-----------------1---------------|
A|---------------------------------|---------------------------------|


  C
e|---------------------------------|---------------------------------|                        
B|---------------------------------|---------------------------------|
G|-12\-9---9---9-------9-/-12-\-9--|-9---9-------9---9-/-12--12--12--|
D|---------------------------------|---------------------------------| 
A|-10\-7---7---7-------7-/-10-\-7--|-7---7-------7---7-/-10--10--10--|
A|---------------------------------|---------------------------------|
 |
 |
e|---------------------------------|---------------------------------|                        
B|-5------------5----------5-------|-----5-----------5-----------5---|
G|-5------------5----------5-------|-----5-----------5-----------5---|
D|-5------------5--x---x---5-------|-----5-----------5-----------5---| 
A|-3---------------x---x---3-------|-----------------3---------------|
A|---------------------------------|---------------------------------|


  A
e|---------------------------------|---------------------------------|-                       
B|---------------------------------|---------------------------------|-
G|-12\-9---9---9-------9---9-/-12--|-12--12--12-/14--14--14--14-/15--|14~
D|---------------------------------|---------------------------------|- 
A|-10\-7---7---7-------7---7-/-10--|-10--10--10-/12--12--12--12-/13--|12~
A|---------------------------------|---------------------------------|-
 |
 |
e|---------------------------------|---------------------------------|                        
B|-2-------------------------------|-2-------------------------------|
G|-2-------------------------------|-2-------------------------------|
D|-2-------------------------------|-2-------------------------------| 
A|-0-------------------------------|-0-------------------------------|
A|---------------------------------|-0-------------------------------|



Bridge : (both guitars play same riff)

  Dm
e|---------------------------------|---------------------------------|                        
B|---------------------------------|---------------------------------|
G|---------------------------------|---------------------------------|
D|-----------------7---------------|-8---------------7---------------| 
A|-5---------------5---------------|-5---------------5---------------|
A|-5-------------------------------|---------------------------------|


  C#dim
e|---------------------------------|---------------------------------|                        
B|---------------------------------|---------------------------------|
G|---------------------------------|---------------------------------|
D|-----------------7---------------|-5---------------7---------------| 
A|-4---------------4---------------|-4---------------4---------------|
A|-4-------------------------------|---------------------------------|


  Dm
e|---------------------------------|---------------------------------|                        
B|---------------------------------|---------------------------------|
G|---------------------------------|---------------------------------|
D|-----------------7---------------|-8---------------7---------------| 
A|-5---------------5---------------|-5---------------5---------------|
A|-5-------------------------------|---------------------------------|


  C#dim
e|---------------------------------|---------------------------------|                        
B|---------------------------------|---------------------------------|
G|---------------------------------|---------------------------------|
D|-----------------7---------------|-5---------------7---------------| 
A|-4---------------4---------------|-4---------------4---------------|
A|-4-------------------------------|---------------------------------|


  Bb
e|---------------------------------|---------------------------------|                        
B|---------------------------------|---------------------------------|
G|---------------------------------|---------------------------------|
D|-----------------3---------------|-5---------------3---------------| 
A|-1---------------1---------------|-1---------------1---------------|
A|-1-------------------------------|---------------------------------|


  A
e|---------------------------------|---------------------------------|                        
B|---------------------------------|---------------------------------|
G|---------------------------------|---------------------------------|
D|-----------------2---------------|-3---------------2---------------| 
A|-0---------------0---------------|-0---------------0---------------|
A|-0-------------------------------|---------------------------------|


  Bb
e|---------------------------------|---------------------------------|                        
B|---------------------------------|---------------------------------|
G|---------------------------------|---------------------------------|
D|-----------------3---------------|-5---------------3---------------| 
A|-1---------------1---------------|-1---------------1---------------|
A|-1-------------------------------|---------------------------------|


  Bb/A                               A
e|---------------------------------|---------------------------------|                        
B|-3-------------------------------|-2-------------------------------|
G|-3-------------------------------|-2-------------------------------|
D|-3-------------------------------|-2-------------------------------| 
A|-0-------------------------------|-0-------------------------------|
A|---------------------------------|---------------------------------|



Solo : (guitar 2 plays the bridge during the solo)

e|---------------------------------|---------------------------------|                        
B|-14b15rb15----------------b15----|---------b15----------b15--------|
G|---------------------------------|---------------------------------|
D|---------------------------------|---------------------------------| 
A|---------------------------------|---------------------------------|
A|---------------------------------|---------------------------------|
                                                           A.H

e|---------------------------------|---------------------------------|                        
B|\9-------b-------10------9---10--|h11--10---9--10------10------10--|
G|---------------------------------|-----------------10-------9------|
D|---------------------------------|---------------------------------| 
A|---------------------------------|---------------------------------|
A|---------------------------------|---------------------------------|



e|---------------------------------|---------------------------------|                        
B|---------------------------------|---------------------------------|
G|\7~---------------------/7---9---|b10-r9---7---9--\3-----------3/7-|
D|---------------------------------|---------------------------------| 
A|---------------------------------|---------------------------------|
A|---------------------------------|---------------------------------|



e|---------------------------------|--------------------------------------|                       
B|---------------------------------|--------------------------------------|
G|---------------------------------|--------------------------------12-14-|
D|-6---------------b---------------|-7~---------------------12-14-15------| 
A|---------------------------------|----------------10-12-13--------------|
A|---------------------------------|--------------------------------------|



e|---------------------------------|---------------------------------|                        
B|----------------------------11---|-15~--------------------11--/15--|
G|-15~--------------------10-------|--------------------10-----------|
D|--------------------12-----------|---------------------------------| 
A|---------------------------------|---------------------------------|
A|---------------------------------|---------------------------------|


e|---------------------------------|---------------------------------|                        
B|-14~---------------\10---9---10--|-11--10--9--10--/17-b18-r17--15--|
G|---------------------------------|---------------------------------|
D|---------------------------------|---------------------------------| 
A|---------------------------------|---------------------------------|
A|---------------------------------|---------------------------------|



e|-17b18r-b------------------------|------------------------------15--| 
B|---------------------------------|13------13-13-15-17-18---17-18----|
G|------------------------10--/15--|----15----------------------------|
D|--------------------8------------|----------------------------------| 
A|---------------------------------|----------------------------------|
A|---------------------------------|----------------------------------|


(2nd guitar plays harmonization)

e|-17b18rb-------------------------|-12-13-12-10-12-10--9-10----------------------|   
B|---------------------------------|------------------------10-11-10--8-10-8-\5-6-|
G|---------------------------------|----------------------------------------------|
D|---------------------------------|----------------------------------------------| 
A|---------------------------------|----------------------------------------------|
A|---------------------------------|----------------------------------------------|
 |
 |
e|-22~-----------------------------|-17-18-17-15-17-15-13-15----------------------|--          
B|---------------------------------|------------------------14-15-14-11-14-11-8-10|10~
G|---------------------------------|----------------------------------------------|--
D|---------------------------------|----------------------------------------------|-- 
A|---------------------------------|----------------------------------------------|--
A|---------------------------------|----------------------------------------------|--



Intro


Bridge : (2 guitars)

  A   "I'm the one to..."
e|---------------------------------|                        
B|---------------------------------|
G|---------------------------------|
D|---------------------------------| 
A|---------------------------------|
A|-4-0-0-0-5-0-0-0-7-0-0-0/8~------|
  P.M.____________________


  "blame..."
e|-------------------------------------|-------------------------------------|              
B|-------------------------------------|-------------------------------------|
G|-------------------------------------|-------------------------------------|
D|-------------------------------------|-------------------------------------| 
A|-------------------------------------|-------------------------------------|
A|-12-0-0-0-12-0-0-0-0-0-12-0-0-0-12-0-|-12-0-0-0-12-0-0-0-0-0-12-0-0-0-12-0-|
 |    P.M._    _________    _____    _      _____    _________    _____    _
 |
e|-------------------------------------|-------------------------------------|                 
B|-------------------------------------|-------------------------------------|
G|-------------------------------------|-------------------------------------|
D|-------------------------------------|-------------------------------------| 
A|-0--------0------------0--------0----|-0--------0------------0--------0----|
A|-0--0-0-0-0--0-0-0-0-0-0--0-0-0-0--0-|-0--0-0-0-0--0-0-0-0-0-0--0-0-0-0--0-|
      P.M._    _________    _____    _      _____    _________    _____    _


e|-------------------------------------|-------------------------------------|              
B|-------------------------------------|-------------------------------------|
G|-------------------------------------|-------------------------------------|
D|-------------------------------------|-------------------------------------| 
A|-------------------------------------|-------------------6-6-6-6-1-1-1-1---|
A|-12-0-0-0-12-0-0-0-0-0-12-0-0-0-12-0-|-12-0-0-0-12-0-0-0-6-6-6-6-1-1-1-1---|
 |    P.M._    _________    _____    _      _____    _____________________
 |
e|-------------------------------------|-------------------------------------|                 
B|-------------------------------------|-------------------------------------|
G|-------------------------------------|-------------------------------------|
D|-------------------------------------|-------------------------------------| 
A|-0--------0------------0--------0----|-0--------0--------6-6-6-6-1-1-1-1---|
A|-0--0-0-0-0--0-0-0-0-0-0--0-0-0-0--0-|-0--0-0-0-0--0-0-0-6-6-6-6-1-1-1-1---|
      P.M._    _________    _____    _      _____    _____


  "my trust..."
e|-------------------------------------|-------------------------------------|              
B|-------------------------------------|-------------------------------------|
G|-------------------------------------|-------------------------------------|
D|-------------------------------------|-------------------------------------| 
A|-------------------------------------|-------------------------------------|
A|-12-0-0-0-12-0-0-0-0-0-12-0-0-0-12-0-|-12-0-0-0-12-0-0-0-0-0-12-0-0-0-12-0-|
 |    P.M._    _________    _____    _      _____    _________    _____    _
 |
e|-------------------------------------|-------------------------------------|                 
B|-------------------------------------|-------------------------------------|
G|-------------------------------------|-------------------------------------|
D|-------------------------------------|-------------------------------------| 
A|-0--------0------------0--------0----|-0--------0------------0--------0----|
A|-0--0-0-0-0--0-0-0-0-0-0--0-0-0-0--0-|-0--0-0-0-0--0-0-0-0-0-0--0-0-0-0--0-|
      P.M._    _________    _____    _      _____    _________    _____    _


e|-------------------------------------|-------------------------------------|              
B|-------------------------------------|-------------------------------------|
G|-------------------------------------|-------------------------------------|
D|-------------------------------------|-------------------------------------| 
A|-------------------------------------|-------------------4-----3-----1-----|
A|-12-0-0-0-12-0-0-0-0-0-12-0-0-0-12-0-|-12-0-0-0-12-0-0-0-4-----3-----1-----|
 |    P.M._    _________    _____    _      _____    _______________________
 |
e|-------------------------------------|-------------------------------------|                 
B|-------------------------------------|-------------------------------------|
G|-------------------------------------|-------------------------------------|
D|-------------------------------------|-------------------------------------| 
A|-0--------0------------0--------0----|-0--------0--------4-----3-----1-----|
A|-0--0-0-0-0--0-0-0-0-0-0--0-0-0-0--0-|-0--0-0-0-0--0-0-0-4-----3-----1-----|
      P.M._    _________    _____    _      _____    _______________________



(guitar 2 continues the riff and guitar 1 plays:)

  "No more words..."
e|-15----------15----------15----------|-----15------------13------13--------|                 
B|-18b20-------18b20-------18b20-------|-----18b20---------16b18---16b18-----|
G|-------------------------------------|-------------------------------------|
D|-------------------------------------|-------------------------------------| 
A|-------------------------------------|-------------------------------------|
A|-------------------------------------|-------------------------------------|


e|-12----------12----------12----------|-----12-------------12-----12--------|   
B|-15b17-------15b17-------15b17-------|-----15b17----------15b17--15b17-----|
G|-------------------------------------|-------------------------------------|
D|-------------------------------------|-------------------------------------| 
A|-------------------------------------|-------------------------------------|
A|-------------------------------------|-------------------------------------|


e|-15----------15----------15----------|-----15------------17------17--------|                 
B|-18b20-------18b20-------18b20-------|-----18b20---------20b22---20b22-----|
G|-------------------------------------|-------------------------------------|
D|-------------------------------------|-------------------------------------| 
A|-------------------------------------|-------------------------------------|
A|-------------------------------------|-------------------------------------|


e|-12----------12----------12----------|-----12-------------12-----12--------|-12---- 
B|-15b17-------15b17-------15b17-------|-----15b17----------15b17--15b17-----|-15b17~-
G|-------------------------------------|-------------------------------------|-------
D|-------------------------------------|-------------------------------------|-------
A|-------------------------------------|-------------------------------------|-------
A|-------------------------------------|-------------------------------------|-------


HOOK x2

POST-HOOK

POST-HOOK 2 : (2 different guitars) 

  Bb  "Late... Oh I thought..."
e|-------------------------------------|-------------------------------------|                 
B|-------------------------------------|-------------------------------------|
G|-10------------10-------------10-----|-----10-------------10--------10-----|
D|-----12---12--------12---12-------12-|-12-------12---12--------12-------12-| 
A|-------------------------------------|-------------------------------------|
A|-------------------------------------|-------------------------------------|
 |
 |
e|-------------------------------------|-------------------------------------|                 
B|-------------------------------------|-------------------------------------|
G|-7-------------7--------------7------|-----7--------------7---------7------|
D|-----8----8---------8----8--------8--|-8--------8----8---------8--------8--| 
A|-------------------------------------|-------------------------------------|
A|-------------------------------------|-------------------------------------|


  C
e|-------------------------------------|-------------------------------------|                 
B|-------------------------------------|-------------------------------------|
G|-9-------------9--------------9------|-----9--------------9---------9------|
D|-----10---10--------10---10-------10-|-10-------10---10--------10-------10-| 
A|-------------------------------------|-------------------------------------|
A|-------------------------------------|-------------------------------------|
 |
 |
e|-------------------------------------|-------------------------------------|                 
B|-------------------------------------|-------------------------------------|
G|-5-------------5--------------5------|-----5--------------5---------5------|
D|-----5----5---------5----5--------5--|-5--------5----5---------5--------5--| 
A|-------------------------------------|-------------------------------------|
A|-------------------------------------|-------------------------------------|


  Dm
e|-------------------------------------|-------------------------------------|                 
B|-------------------------------------|-------------------------------------|
G|-10------------10-------------10-----|-----10-------------10--------10-----|
D|-----12---12--------12---12-------12-|-12-------12---12--------12-------12-| 
A|-------------------------------------|-------------------------------------|
A|-------------------------------------|-------------------------------------|
 |
 |
e|-------------------------------------|-------------------------------------|                 
B|-------------------------------------|-------------------------------------|
G|-7-------------7--------------7------|-----7--------------7---------7------|
D|-----7----7---------7----7--------7--|-7--------7----7---------7--------7--| 
A|-------------------------------------|-------------------------------------|
A|-------------------------------------|-------------------------------------|


  Dm                                     C
e|-------------------------------------|-------------------------------------|                 
B|-------------------------------------|-------------------------------------|
G|-10------------10-------------10-----|-9-------------9--------------9------|
D|-----12---12--------12---12-------12-|-----10---10--------10---10-------10-| 
A|-------------------------------------|-------------------------------------|
A|-------------------------------------|-------------------------------------|
 |
 |
e|-------------------------------------|-------------------------------------|                 
B|-------------------------------------|-------------------------------------|
G|-7-------------7--------------7------|-5-------------5--------------5------|
D|-----7----7---------7----7--------7--|-----5----5---------5----5--------5--| 
A|-------------------------------------|-------------------------------------|
A|-------------------------------------|-------------------------------------|


  Bb
e|-------------------------------------|-------------------------------------|                 
B|-------------------------------------|-------------------------------------|
G|-10------------10-------------10-----|-----10-------------10--------10-----|
D|-----12---12--------12---12-------12-|-12-------12---12--------12-------12-| 
A|-------------------------------------|-------------------------------------|
A|-------------------------------------|-------------------------------------|
 |
 |
e|-------------------------------------|-------------------------------------|                 
B|-------------------------------------|-------------------------------------|
G|-7-------------7--------------7------|-----7--------------7---------7------|
D|-----8----8---------8----8--------8--|-8--------8----8---------8--------8--| 
A|-------------------------------------|-------------------------------------|
A|-------------------------------------|-------------------------------------|


  A
e|-------------------------------------|-------------------------------------|                 
B|-------------------------------------|-------------------------------------|
G|-9-------------9--------------9------|-9~----------------------------------|
D|-----11---11--------11---11-------11-|-11~---------------------------------| 
A|-------------------------------------|-------------------------------------|
A|-------------------------------------|-------------------------------------|
 |
 |
e|-------------------------------------|-------------------------------------|                 
B|-------------------------------------|-------------------------------------|
G|-6-------------6--------------6------|-6~----------------------------------|
D|-----7----7---------7----7--------7--|-7~----------------------------------| 
A|-------------------------------------|-------------------------------------|
A|-------------------------------------|-------------------------------------|


Outro : (Intro with harmonized theme before the 1 guitar theme)
Добавлено: 05.08.2015
Другие материалы по этой песне:
  • Аккорды и текст

Страница создана 11.07.2015
http://primanota.ru/xy/walking-on-solid-ground-chords.htm
Привет, Гость.
Предлагаем пройти революционный курс по гитаре.
Подарок от PrimaNota.Ru, забирай!