PrimaNota.ru - самый крупный в мире бесплатный архив песенных текстов, аккордов, табулатур и нот


Xy - Crush You - таба, бас-таба, видео

Регистрация Запомнить меня
Войти через:  Facebook Google Twitter Vk Yandex Mail.ru

Xy - Crush You - таба, бас-таба, видео

Печатать
Просмотров: 123
                        XY - CRUSH YOU 
                            

tabbed by: JL Ducroiset
email    : jl@xyofficial.com
website  : www.xyofficial.com
Facebook : XYofficial
Twitter  : XYrock
Video    : http://www.youtube.com/watch?v=ySYZKLe8caU


Notation:                                

  h      : hammer-on
  p      : pull-off                                 
  \      : slide down               
  /      : slide up                 
  ~      : vibrato
  x      : mute note
  P.M.___: palm mute
  <  >   : natural harmonic


BPM: 184

Special tuning, the 6th string will be tuned in C:
C A D G B e


Intro/chorus : Gm

e|----------------------------------|---------------------------------|                        
B|----------------------------------|---------------------------------|
G|----------------------------------|---------------------------------|
D|----------------------------------|---------------------------------| 
A|----------------------------------|---------------------------------|
C|-7-7---7---7-8-7---7---7---7-10-7-|---7---7---7-8-7-1-------2~----/-|


e|----------------------------------|---------------------------------|                        
B|----------------------------------|---------------------------------|
G|----------------------------------|---------------------------------|
D|----------------------------------|---------------------------------| 
A|----------------------------------|---------------------------------|
C|-7-7---7---7-8-7---7---7---7-10-7-|---7---7---7-8-7-3-------2~------|



Verse 1 : "Hey There! ..."

e|-------------------------------------------|                                        
B|-------------------------------------------|
G|-------------------------------------------| (x4)
D|-------------------------------------------| 
A|-------------------------------------------|
C|-------------------------------------------|

"My friend! ..."

e|-------------------------------------------|                                        
B|-------------------------------------------|
G|-------------------------------------------|
D|-------------------------------------------| 
A|-------------------------------------------|
C|-x--7----7----7--5--7~\--------------------|


e|-------------------------------------------|                                        
B|-------------------------------------------|
G|-------------------------------------------|
D|-------------------------------------------| 
A|-------------------------------------------|
C|-x--7----7----7--10-7~\--------------------|


e|-------------------------------------------|                                        
B|-------------------------------------------|
G|-------------------------------------------|
D|-------------------------------------------| 
A|-------------------------------------------|
C|-x--7----7----7--5--7~\--------------------|


e|-------------------------------------------|                                        
B|-------------------------------------------|
G|-------------------------------------------|
D|-------------------------------------------| 
A|-------------------------------------------|
C|-3------------------2~---------------------|


"...property."

e|-------------------------------------------|                                        
B|-------------------------------------------|
G|-------------------------------------------| (x2)
D|-------------------------------------------| 
A|-------------------------------------------|
C|-------------------------------------------|


e|-------------------------------------------|                                        
B|-------------------------------------------|
G|-------------------------------------------|
D|-------------------------------------------| 
A|-------5----------5------------------------|
C|-7--7--7----7--7--7------------------------|
   P.M._      P.M._

e|-------------------------------------------|                                        
B|-------------------------------------------|
G|-------------------------------------------|
D|-------------------------------------------| 
A|---------------------------0---------------|
C|-0-0-0-0---0-0-0-0---2--2--2----2--2-<2>---|
   P.M._     P.M._     P.M._      P.M._


Chorus


Verse 2 (almost same as verse 1)


pre-chorus: "...so dry"

e|------------------------------------|----------------------------------|                    
B|------------------------------------|----------------------------------|
G|------------------------------------|----------------------------------|
D|------------------------------------|----------------------0-------0---|
A|------------------------------------|--------------------3---3---0-----|
C|-7-7-10-7-7-9-7-7-10-7-7-9-7-7-9h10-|-7-7-10-7-7-9-7-7-5-------2-----2-|


e|----------------------------------|----------------------------------|                      
B|----------------------------------|----------------------------------|
G|----------------------------------|----------------------------------|
D|----------------------------------|----------------------------------| 
A|-1--------------------------------|-3--------------------------------|
C|-3--------------------------------|-5--------------------------------|


e|----------------------------------|----------------------------------|                     
B|----------------------------------|----------------------------------|
G|----------------------------------|----------------------------------|
D|----------------------------------|----------------------------------| 
A|----------------------------------|----------------------------------|
C|-2-------2-------1-------2--------|-3------/7-------6------\2--------|



Chorus (x2)           
  
                                           
Bridge: Cm (for 2 guitars)

e|---------------------------------|---------------------------------|                        
B|---------------------------------|---------------------------------|
G|---------------------------------|---------------------------------|
D|---------------------------------|---------------------------------| 
A|---------------------------------|---------------------------------|
C|-7p0-0-7p0-0-7p0-0-7p0-0-7p0-7p0-|-8p0-0-8p0-0-8p0-0-5p0-0-5p0-5p0-|
 |
 |
e|---------------------------------|---------------------------------|                        
B|---------------------------------|---------------------------------|
G|---------------------------------|---------------------------------|
D|---------------------------------|---------------------------------| 
A|---------------------------------|---------------------------------|
C|-0-------------------------------|---------------------------------|



e|---------------------------------|---------------------------------|                        
B|---------------------------------|---------------------------------|
G|---------------------------------|---------------------------------|
D|---------------------------------|---------------------------------| 
A|---------------------------------|---------------------------------|
C|-7p0-0-7p0-0-7p0-0-7p0-0-7p0-7p0-|-8p0-0-8p0-0-8p0---/-11~---------|
 |
 |
e|---------------------------------|---------------------------------|                        
B|---------------------------------|---------------------------------|
G|---------------------------------|---------------------------------|
D|---------------------------------|---------------------------------| 
A|---------------------------------|---------------------------------|
C|---------------------------------|---------------------------------|



e|---------------------------------|---------------------------------|                        
B|---------------------------------|---------------------------------|
G|---------------------------------|---------------------------------|
D|---------------------------------|---------------------------------| 
A|---------------------------------|---------------------------------|
C|-7p0-0-7p0-0-7p0-0-7p0-0-7p0-7p0-|-8p0-0-8p0-0-8p0-0-5p0-0-5p0-5p0-|
 |
 |
e|---------------------------------|---------------------------------|                        
B|---------------------------------|---------------------------------|
G|---------------------------------|---------------------------------|
D|---------------------------------|---------------------------------| 
A|---------------------------------|---------------------------------|
C|-3p0-0-3p0-0-3p0-0-3p0-0-3p0-3p0-|-5p0-0-5p0-0-5p0-0-2p0-0-2p0-2p0-|



e|---------------------------------|---------------------------------|                        
B|---------------------------------|---------------------------------|
G|---------------------------------|---------------------------------|
D|---------------------------------|---------------------------------| 
A|---------------------------------|---------------------------------|
C|-7p0-0-7p0-0-7p0-0-7p0-0-7p0-7p0-|-8p0-0-8p0-0-8p0----/-11~--------|
 |
 |
e|---------------------------------|---------------------------------|                        
B|---------------------------------|---------------------------------|
G|---------------------------------|---------------------------------|
D|---------------------------------|---------------------------------| 
A|---------------------------------|---------------------------------|
C|-3p0-0-3p0-0-3p0-0-3p0-0-3p0-3p0-|-5p0-0-5p0-0-5p0----/-7~---------|


"I gave all I can..."

e|---------------------------------|---------------------------------------|                  
B|---------------------------------|---------------------------------------|
G|---------------------------------|---------------------------------------|
D|---------------------------------|---------------------------------------| 
A|---------------------------------|---------------------------------------|
C|-7p0-0-7p0-0-7p0-0-7p0-0-7p0-7p0-|-10p0-0-10p0-0-10p0-0-10p0-0-10p0-10p0-|
 |
 |
e|---------------------------------|---------------------------------|                        
B|---------------------------------|---------------------------------|
G|---------------------------------|---------------------------------|
D|-5-----5-----5-----5-----5---5---|-8-----8-----8-----8-----8---8---| 
A|-3-3-3-3-3-3-3-3-3-3-3-3-3-3-3-3-|-5-5-5-5-5-5-5-5-5-5-5-5-5-5-5-5-|
C|---------------------------------|---------------------------------|
   P.M._____________________________________________________________


e|---------------------------------|-----------------------------------|                      
B|---------------------------------|-----------------------------------|
G|---------------------------------|-----------------------------------|
D|---------------------------------|-----------------------------------| 
A|---------------------------------|-----------------------------------|
C|-7p0-0-7p0-0-7p0-0-7p0-0-7p0-7p0-|-8p0-0-8p0-0-8p0-11p0-0-11p0-0-11~-|
 |
 |
e|---------------------------------|---------------------------------|                        
B|---------------------------------|---------------------------------|
G|---------------------------------|---------------------------------|
D|-8-----8-----8-----8-----8---8---|---------------------------------| 
A|-6-6-6-6-6-6-6-6-6-6-6-6-6-6-6-6-|-3-----3-----3---5-----5-----5---|
C|---------------------------------|-5-5-5-5-5-5-5-5-7-7-7-7-7-7-7-7-|
   P.M._____________________________________________________________

"Thought we were friends..."

e|---------------------------------|---------------------------------------|                  
B|---------------------------------|---------------------------------------|
G|---------------------------------|---------------------------------------|
D|---------------------------------|---------------------------------------| 
A|---------------------------------|---------------------------------------|
C|-7p0-0-7p0-0-7p0-0-7p0-0-7p0-7p0-|-10p0-0-10p0-0-10p0-0-10p0-0-10p0-10p0-|
 |
 |
e|---------------------------------|---------------------------------|                        
B|---------------------------------|---------------------------------|
G|---------------------------------|---------------------------------|
D|-5-----5-----5-----5-----5---5---|-8-----8-----8-----8-----8---8---| 
A|-3-3-3-3-3-3-3-3-3-3-3-3-3-3-3-3-|-5-5-5-5-5-5-5-5-5-5-5-5-5-5-5-5-|
C|---------------------------------|---------------------------------|
   P.M._____________________________________________________________


e|---------------------------------|-----------------------------------|                      
B|---------------------------------|-----------------------------------|
G|---------------------------------|-----------------------------------|
D|---------------------------------|-----------------------------------| 
A|---------------------------------|-----------------------------------|
C|-7p0-0-7p0-0-7p0-0-7p0-0-7p0-7p0-|-8p0-0-8p0-0-8p0-11p0-0-11p0-0-11~\|
 |
 |
e|---------------------------------|---------------------------------|                        
B|---------------------------------|---------------------------------|
G|---------------------------------|---------------------------------|
D|-8-----8-----8-----8-----8---8---|---------------------------------| 
A|-6-6-6-6-6-6-6-6-6-6-6-6-6-6-6-6-|-3-----3-----3---5-----5-----5---|
C|---------------------------------|-5-5-5-5-5-5-5-5-7-7-7-7-7-7-7-7\|
   P.M._____________________________________________________________


Outro: Cm (both guitars play same riff)

- part 1:

e|---------------------------------|---------------------------------|                        
B|---------------------------------|---------------------------------|
G|---------------------------------|---------------------------------|
D|---------------------------------|---------------------------------| 
A|---------------------------------|---------------------------------|
C|-0-0---0---0-1p0---0---0---0-3p0-|---0---0---0-1p0/6-------7~------|


e|---------------------------------|---------------------------------|                        
B|---------------------------------|---------------------------------|
G|---------------------------------|---------------------------------|
D|---------------------------------|---------------------------------| 
A|---------------------------------|---------------------------------|
C|-0-0---0---0-1p0---0---0---0-3p0-|---0---0---0-1p0/8-------7~------|


e|---------------------------------|---------------------------------|                        
B|---------------------------------|---------------------------------|
G|---------------------------------|---------------------------------|
D|---------------------------------|---------------------------------| 
A|---------------------------------|---------------------------------|
C|-0-0---0---0-1p0---0---0---0-3p0-|---0---0---0-1p0/6-------7~------|


e|---------------------------------|---------------------------------|                        
B|---------------------------------|---------------------------------|
G|---------------------------------|---------------------------------|
D|---------------------------------|---------------------------------| 
A|---------------------------------|---------------------------------|
C|-0-0---0---0-1p0---0---0---0-3p0-|---0---0---0-1p0/8-------7~------|
   

- part 2:

e|---------------------------------|---------------------------------|                        
B|---------------------------------|---------------------------------|
G|---------------------------------|---------------------------------|
D|---------------------------------|---------------------------------| 
A|---------------------------------|-------------------6-----5-------|
C|-0-0---0---001p0---0---0---003p0-|---0---0---001p0-0---3-0---2~----|
   P.M.________      P.M.______        P.M.______

e|---------------------------------|--------------------------------------------------|      
B|---------------------------------|--------------------------------------------------|
G|---------------------------------|--------------------------------------------------|
D|---------------------------------|--------------------------------------------------| 
A|---------------------------------|--------------------------------------------------|
C|-0-0---0---001p0---0---0---003p0-|---0---0---0-1p0-10-8-7-0-8-7-5-0-7-5-3-0-5-3-2-0-|
   P.M.________      P.M.______        P.M._____     P.M.____________________________


e|---------------------------------|---------------------------------|                        
B|---------------------------------|---------------------------------|
G|---------------------------------|---------------------------------|
D|---------------------------------|---------------------------------| 
A|---------------------------------|------------------/6-----3h5-2---|
C|-0-0-0-0-0-001p0-0-0-0-0-0-003p0-|-0-0-0-0-0-001p0-0---3-0---------|
   P.M.________    P.M.________      P.M.________

e|---------------------------------|---------------------------------|                        
B|---------------------------------|---------------------------------|
G|---------------------------------|---------------------------------|
D|---------------------------------|---------------------------------| 
A|---------------------------------|--------------------3h4p3--------|
C|-000000001p0-------------/7------|-000000001p0-------0-----0-4p3p1-|
   P.M.____                          P.M.____

Добавлено: 05.08.2015
Вам также может быть интересно:
Другие материалы по этой песне:
  • Аккорды и текст

Страница создана 11.07.2015
http://primanota.ru/xy/crush-you-chords.htm
Привет, Гость.
Предлагаем пройти революционный курс по гитаре.
Подарок от PrimaNota.Ru, забирай!