PrimaNota.ru - самый крупный в мире бесплатный архив песенных текстов, аккордов, табулатур и нот


Xutos E Pontapes - Aqui Ao Luar - таба, видео

Регистрация Запомнить меня
Войти через:  Facebook Google Twitter Vk Yandex Mail.ru

Xutos E Pontapes - Aqui Ao Luar - таба, видео

Печатать
Просмотров: 65
[INTRO]

Guitar I

e|--12-12-12--10/9-|-7-7-7--10-10/9/7------|--2-2-2-------------------|
B|--10-10-10---8/7-|-8-8-8---8--8/8/8------|--3-3-3-------------------|
G|--11-11-11---9/8-|-9-9-9---9--9/9/7-(2x)-|--2-2-2-------------------|
D|-----------------|-----------------------|--0-0-0-------------------|
A|-----------------|-----------------------|--------------------------|
E|-----------------|-----------------------|--------------------------|


e|--12-12-12--10/9-|-7-7-7--10-10/9/7------|--2-2-2-------------------|
B|--10-10-10---8/7-|-8-8-8---8--8/8/8-(2x)-|--3-3-3-------------------|
G|--11-11-11---9/8-|-9-9-9---9--9/9/7------|--2-2-2-------------------|
D|-----------------|-----------------------|--0-0-0-------------------|
A|-----------------|-----------------------|--------------------------|
E|-----------------|-----------------------|--------------------------|

segunda vez, guitarra II toca:
the second time, guitar II plays:

|--12-14-12---10/9---7---9/7---5---7/5---3---5/3---12-14-12---10/9---|
|--------------------------------------------------------------------|
|--------------------------------------------------------------------|
|--------------------------------------------------------------------|
|--------------------------------------------------------------------|
|--------------------------------------------------------------------|

|-7---9/7---5---7/5---3---5/3---1--3/1-|-?-|--12-14-12--10/9--7--9/7-|
|--------------------------------------|-?-|-------------------------|
|--------------------------------------|-?-|-------------------------|
|--------------------------------------|-?-|-------------------------|
|--------------------------------------|-?-|-------------------------|
|--------------------------------------|-?-|-------------------------|

|---5---7/5---3---5/3---1---3/1--------------------------------------|
|--------------------------------------------------------------------|
|--------------------------------------------------------------------|
|--------------------------------------------------------------------|
|--------------------------------------------------------------------|
|--------------------------------------------------------------------|

[ACORDES/CHORDS]

--Verse--
Em         G              D D4 D
Ela sorriu, e ele foi atrás
Em         G              D D4 D
Ela despiu-o, e ela o satisfaz
Em         G                       D D4 D
Passa a noite, passa o tempo devagar
Em                     G
Já é dia, já é hora de voltar.


--Chorus--
D                      Em
Aqui ao luar, ao pé de ti, ao pé do mar
G                                 D D4 D
Só o sonho fica, só ele pode ficar.
D                      Em
Aqui ao luar, ao pé de ti, ao pé do mar,
G                                 D D4 D
Só o sonho fica, só ele pode ficar.

-repeat intro, verse and chorus-

Em: 022000
G:  320033
D:  xx0232
D4: xx0233


[RIFFS]

Riff 1(mudança de Em para G e D para Em/right before changing Em to G and D to Em)
|---------------------|
|---------------------|
|---------------------|
|-----2--0------------|
|-0-2-----------------|
|---------------------|

Riff 2(mudança de G para D/right before changing G to D)
|---------------------|
|---------------------|
|---------------------|
|---------------------|
|--------2---0--------|
|--0--3---------------|
Добавлено: 08.07.2013
Другие материалы по этой песне:
  • Аккорды и текст

Страница создана 08.07.2013
http://primanota.ru/xutos-e-pontapes/aqui-ao-luar-chords.htm
Привет, Гость.
Предлагаем пройти революционный курс по гитаре.
Подарок от PrimaNota.Ru, забирай!