PrimaNota.ru - самый крупный в мире бесплатный архив песенных текстов, аккордов, табулатур и нот


Xutos & Pontapés - Conta-me Histrias - бас-таба, видео

Регистрация Запомнить меня
Войти через:  Facebook Google Twitter Vk Yandex Mail.ru

Xutos & Pontapés - Conta-me Histrias - бас-таба, видео

Печатать
Просмотров: 101
Уроки эстрадного вокала в Санкт-Петербурге
ARTIST:XUTOS E PONTAPÉS
MUSIC:CONTA-ME HISTÓRIAS (Circo de Feras,1987 Polygram Track 01 03:54)
BASS PLAYER:TIM

Riff  1
E-----------------------|
A-5-5-----------3-0-3-0-|
D------2-2-3-3----------|
G-----------------------|

Riff  2
E----------------------|
A-5-5----------------3-|
D------2-2-3-3-5-3-2---|
G----------------------|

Riff  3
E---------------------5-5-5-5-5-5-5-5---------------------5-5-5-5-5-5-5-5-------------------------|
A-5-5-5-5-5-5-5-5---------------------5-5-5-5-5-5-5-5---------------------5-5-5-5-5-5-5-5-7-7-7-7-|
D-------------------------------------------------------------------------------------------------|
G-------------------------------------------------------------------------------------------------|

Riff 4
E-----------------------|
A-------------------5-3-|
D-3-3-3-3-3-3-3-3-2-----|
G-----------------------|

Riff 5
E-----------------------------------------|
A-------------------5-3-5-5-5-5-5-5-3-5-3-|
D-3-3-3-3-3-3-3-3-2-----------------------|
G-----------------------------------------|

Riff 6
E-------------------------|
A-----------------5-3-5-3-|
D-3-3-3-3-3-3-3-3---------|
G-------------------------|

Riff 7
E----------------------|
A-5--5---------------3-|
D-------2--2--3--3—3---|
G----------------------|

Riff 1 3x (00:00)
Riff 2 1x (00:15)
Riff 1 3x (00:20)
Riff 2 1x (00:35)
Riff 1 2x (00:40)
Riff 3 1x (00:50)
Riff 4 3x (01:04)
Riff 5 1x (01:14)
Riff 1 8x (01:24)
Riff 3 1x (02:03)
Riff 5 3x (02:18)
Riff 6 1x (02:32)
Riff 1 1x (02:37)
Riff 3 1x (02:54)
Riff 4 3x (03:10)
Riff 6 1x (03:25)
Riff 1 1x (03:30)
Riff 2 1x (03:35)
Riff 1 2x (03:40)
Riff 7 1x (03:50)

WWW.XUTOS.PT
Добавлено: 07.07.2012
Другие материалы по этой песне:
  • Аккорды и текст

Страница создана 07.07.2012
http://primanota.ru/xutos-and-pontapes/conta-me-histrias-chords.htm
Привет, Гость.
Предлагаем пройти революционный курс по гитаре.
Подарок от PrimaNota.Ru, забирай!