PrimaNota.ru - самый крупный в мире бесплатный архив песенных текстов, аккордов, табулатур и нот


Xtruppaw - Innu Marc Viva San Cipress - аккорды и текст, видео

Регистрация Запомнить меня
Войти через:  Facebook Google Twitter Vk Yandex Mail.ru

Xtruppaw - Innu Marc Viva San Cipress - аккорды и текст, видео

Печатать
Просмотров: 67
Innu Marc Viva San Cipress
Xtruppaw
----------------------------------------------------------------------------
                Innu Marc (Viva San Cipress) - Xtruppaw
----------------------------------------------------------------------------
Tuning: Standard. 
                  
INTRO: 
    
e|-------------------------------------------------------------------|
B|-------------------------------------------------------------------|
G|------------------7-7-7-7----7-----8---7-5-------------------------|
D|--8-8-8-8----8-------------8-----------------8-7--7-5--------------|
A|-----------8-------------------------------------------8-8---------|
E|-------------------------------------------------------------------|

e|-------------------------------------------------------------------|
B|-------------------------------------------------------------------|
G|-------------------------------------------------------------------|
D|-------------5-7-8-------------------------------------------------|
A|-----------8-------------------------------------------------------|
E|-------------------------------------------------------------------|     
                     
VERSE:
                                         
  Jekk intom...       Ahna ghadna vara...     Parapara-rara-ra.
e|-------------------------------------------------------------------|
B|-------------------------------------------------------------------|
G|--7-7--7-6--7-8-7----7-7--6-7-8-7-5----5---------------------------|
D|-------------------------------------8---7-------------------------|
A|---------------------------------------------8-8-8--10--8-10-8-----|
E|-------------------------------------------------------------------|

  Jekk intom...           Ahna alazobbna...
e|-------------------------------------------------------------------|
B|-------------------------------------------------------------------|
G|-----------------7-----------------7-------------------------------|
D|--10-10--10-9-10---10---10-10-9-10---10-8-7-8/10-8-----------------|
A|-------------------------------------------------------------------|
E|-------------------------------------------------------------------|

   Parapara-rara-rara.
e|-------------------------------------------------------------------|
B|-------------------------------------------------------------------|
G|-------------------------------------------------------------------|
D|-------------------------------------------------------------------|
A|--8-8-8--10--8-10-8------------------------------------------------|
E|---------------------6---------------------------------------------|

    Intkom x'intkom...                             Parapara-rara-ra.
e|-------------------------------------------------------------------|
B|-------------------------------------------------------------------|
G|--7--7-7--7-6-7-8--7-6-7-8--7-6-7-8--7-5---5-----------------------|
D|-----------------------------------------8---7---------------------|
A|-------------------------------------------------8-8-8--10--8-10-8-|
E|-------------------------------------------------------------------|

    Jekk intom...         Ahna qeghdin hara...
e|-------------------------------------------------------------------|
B|-------------------------------------------------------------------|
G|-----------------7-----------------7-------------------------------|
D|--10-10--10-9-10---10---10-10-9-10---10-8-7-8/10-8-----------------|
A|-------------------------------------------------------------------|
E|-------------------------------------------------------------------|

   Parapara-rara-rara.
e|-------------------------------------------------------------------|
B|-------------------------------------------------------------------|
G|-------------------------------------------------------------------|
D|-------------------------------------------------------------------|
A|--8-8-8--10--8-10-8------------------------------------------------|
E|---------------------6---------------------------------------------|

e|-------------------------------------------------------------------|
B|-------------------------------------------------------------------|
G|------------------7-7-7-7----7-----8---7-5-------------------------|
D|--8-8-8-8----8-------------8-----------------8-7--7-5--------------|
A|-----------8-------------------------------------------8-8---------|
E|-------------------------------------------------------------------|
  
Добавлено: 16.02.2016
Другие материалы по этой песне:
  • Аккорды и текст

Страница создана 16.02.2016
http://primanota.ru/xtruppaw/innu-marc-viva-san-cipress-chords.htm
Привет, Гость.
Предлагаем пройти революционный курс по гитаре.
Подарок от PrimaNota.Ru, забирай!