PrimaNota.ru - самый крупный в мире бесплатный архив песенных текстов, аккордов, табулатур и нот


Xtruppaw - Dear Poni - аккорды и текст, видео

Регистрация Запомнить меня
Войти через:  Facebook Google Twitter Vk Yandex Mail.ru

Xtruppaw - Dear Poni - аккорды и текст, видео

Печатать
Просмотров: 61
Dear Poni
Xtruppaw
----------------------------------------------------------------------------
                        Dear Poni - Xtruppaw
----------------------------------------------------------------------------
Tuning: Standard.
[Ghar-ritmu, isma d-diska.]
                         ~ ~ ~
[Listen to the song to determine the strumming pattern]

INTRO:

e|-----------------------6----------------------------------|
B|-------------------------6--------------------------------|
G|---------------7------------------------------------------|
D|-------8---------8--------------------8-------8-----------|
A|-----8----8--------8----------------8----8----------------|
E|--6---------6--------------------6---------6--------------|

Vers:

 Fi ckuniti...
e|-----------------------6---------|
B|-------------------------6-------|
G|---------------7-----------------|
D|-------8---------8---------------|
A|-----8----8--------8-------------|
E|--6---------6--------------------|  (x3)

  Ma kellix...
e|-----------------------1---------|
B|-------------------------1-------|
G|---------------2-----------------|
D|-------3---------3---------------|
A|-----3----3--------3-------------|
E|--1---------1--------------------|  (x3)

  Ha nixtri iz-ziemel...
e|-----------------------6----------------------------------|
B|-------------------------6--------------------------------|
G|---------------7------------------------------------------|
D|-------8---------8--------------------8-------8-----------|
A|-----8----8--------8----------------8----8-------1--3-5-6-|
E|--6---------6--------------------6---------6--------------|


Eb                              Bb
Qalli son jekk trid il-flus mur ahdem
Eb                               Bb
Jekk trid tixtri ziemel gemma ghalih
        F
Ghaliex jien mhux sa ntik penny
               Bb
Biex tixtri il-poni

C
Kemm baghtejt u gemmajt hajti kollha
                         G
Imma fl-ahhar poni jiena xtrajt

Kien il-mimmi t'ghajnejja
                           C
Ghax fid-dinja kollha poni bhalu qatt ma rajt

   F                                 C
Ma kienx baqaghli flus biex nixtri s-silla
   F                             C
Il-poni kien qieghed joghlob bil-guh
          G
U ghax ma kienx baqaghli penny
               C
Kien mietli il-poni

SOLO:   C     G     C

Vers:

     D
Kont hsibt li l-poni haqqu difna xierqa
                             A
Sa hofra fil-gardina kont haffirt

U anka ghamiltlu rhama
                        D
U naqqaxtlu fuqha "Dear Poni Rest in Peace"

  G                            D  
Imma zaqqi bil-guh kienet qed tgerger
  G                            D
Iddecidejt li nsajjar ftit stuffat
          A
U ghax ma kienx baqaghli penny
             D        A D
Kont kilt il-poni

Добавлено: 16.02.2016
Другие материалы по этой песне:
  • Аккорды и текст

Страница создана 16.02.2016
http://primanota.ru/xtruppaw/dear-poni-chords.htm
Привет, Гость.
Предлагаем пройти революционный курс по гитаре.
Подарок от PrimaNota.Ru, забирай!