PrimaNota.ru - самый крупный в мире бесплатный архив песенных текстов, аккордов, табулатур и нот


Xtc - Burning With Optimism's Flames - текст песни, бас-таба, видео

Регистрация Запомнить меня
Войти через:  Facebook Google Twitter Vk Yandex Mail.ru

Xtc - Burning With Optimism's Flames - текст песни, бас-таба, видео

Печатать
Просмотров: 106
Авторы музыки: Andy Partridge
Авторы текста: Andy Partridge
XTC - BURNING WITH OPTIMISM'S FLAMES

ANOTHER FABULOUS BASSLINE FROM COLIN MOULDING.

START - VERSE

G-----------------------------------|
D---5-------5-------5-------5-------|
A-3---32-23---32-23---32-23---32-2--|
E-------3-------3-------3-------3---|

G-----------------------------------------------|
D---5-------5-------5-------5-------------------|
A-3---32-23---32-23---32-23---32-2\-------------|
E-------3-------3-------3-------3--6/--3--------|

G---------------------------------------|
D---5-------5-------5-------------------|
A-3---32-23---32-23---32-2\-------------|
E-------3-------3-------3--6/--3--------|

PRE-CHORUS

G-----------------------------------|
D-----------------------------------|
A-1--1--1h3---------1--1--1h3-------|
E----------1--1--1h3---------1--1---|

G-----------------------------------|
D-----------------------------------|
A-----------------------------------|
E-1-33-1-33-1-3-3-3-3-3-3-3-3-------|

CHORUS

G------------------------------------|
D-------------------------------3-3--|
A-3-3-3------------------------------|
E--------13-3-3--31-1-1--01-1-1------|

G------------------------------------|
D------------------------------------|
A-3-3-3------------------------------|
E--------13-3-3--31-1-1--01-1-1-1-1--|

G------------------------------------|
D-3----------------------------------|
A---3-3---------------------------2--|
E--------13-3-3--31-1-1--01-1-1-3----|

G------------|
D------------|
A-3-3-3--3\--|
E------------|

G-------------------------------------------------|
D-----14-12-------13-11-------13-11-------11-9----|
A-10\------14/-9\------13/-9\------13/-7\-----11--|
E-------------------------------------------------|

G--------------------------------------------------|
D-----14-12-------13-11-------13-11-------11-9-----|
A-10\------14/-9\------13/-9\------13/-7\-----11/--|
E--------------------------------------------------|

VERSE

G-----------------------------------|
D---5-------5-------5-------5-------|
A-3---32-23---32-23---32-23---32-2--|
E-------3-------3-------3-------3---|

G-----------------------------------|
D---5-------5-----------------------|
A-3---32-23---32-2\-----------------|
E-------3-------3--6/--3------------|

G-----------------------------------------|
D---5-------5-------5---------------------|
A-3---32-23---32-23---32-2\---------------|
E-------3-------3-------3--6/--3----------|

PRE-CHORUS

G-----------------------------------|
D-----------------------------------|
A-1--1--1h3---------1--1--1h3-------|
E----------1--1--1h3---------1--1---|

G-----------------------------------|
D-----------------------------------|
A-----------------------------------|
E-1-33-1-33-1-3-3-3-3-3-3-3-3-------|

G------------------------------------|
D-------------------------------3-3--|
A-3-3-3------------------------------|
E--------13-3-3--31-1-1--01-1-1------|

CHORUS

G------------------------------------|
D-------------------------------3-3--|
A-3-3-3------------------------------|
E--------13-3-3--31-1-1--01-1-1------|

G------------------------------------|
D------------------------------------|
A-3--3-3-----------------------------|
E--------13-3-3--31-1-1--01-1-1-3-3--|

G------------|
D------------|
A-3-3-3--3\--|
E------------|

G-------------------------------------------------|
D-----14-12-------13-11-------13-11-------11-9----|
A-10\------14/-9\------13/-9\------13/-7\-----11--|
E-------------------------------------------------|

G--------------------------------------------------|
D-----14-12-------13-11-------13-11-------11-9-----|
A-10\------14/-9\------13/-9\------13/-7\-----11/--|
E--------------------------------------------------|

BRIDGE

G-----------------------------------|
D---5-------5-------5-------5-------|
A-3---32-23---32-23---32-23---32-2--|
E-------3-------3-------3-------3---|

G---------------------------|
D---5-------5-------5-------|
A-3---32-23---32-23---32-2--|
E-------3-------3-------3---|

G-----------------------------------|
D---3-------3-------3-------3-------|
A-1---10-01---10-01---10-01---10-0--|
E-------1-------1-------1-------1---|

G-----------------------------------|
D---5-------5-------5-------5-------|
A-3---32-23---32-23---32-23---32-2--|
E-------3-------3-------3-------3---|

G-----------------------------------|
D---3-------3-------3-------3-------|
A-1---10-01---10-01---10-01---10-0--|
E-------1-------1-------1-------1---|

G------------------------------------|
D---5-------5-------5-------5--------|
A-3---32-23---32-23---32-23---32-2\--|
E-------3-------3-------3-------3----|

G---------------------------------------|
D---10-------10-------10-------10-------|
A-8----87-78----87-78----87-78----87----|
E--------8--------8--------8--------8/--|

PRE-CHORUS

G-----------------------------------|
D-----------------------------------|
A-1--1--1h3---------1--1--1h3-------|
E----------1--1--1h3---------1--1---|

G-----------------------------------|
D-----------------------------------|
A-----------------------------------|
E-1-33-1-33-1-3-3-3-3-3-3-3-3-------|

CHORUS

G---------------------------------------|
D--------------------------3--2--0------|
A-3-3-3-----------------------------32--|
E--------13-3-3--01-1-1--1---1--1-------|

G------------------------------------|
D------------------------------------|
A-3-3-3------------------------------|
E--------13-3-3--01-1-1--01-1-1-3-3--|

G------------------------------------|
D-------------------------------3--3-|
A-3-3-3------------------------------|
E--------13-3-3--31-1-1--01-1-1------|

G------------|
D------------|
A-3-3-3--3\--|
E------------|

G-------------------------------------------------|
D-----14-12-------13-11-------13-11-------11-9----|
A-10\------14/-9\------13/-9\------13/-7\-----11--|
E-------------------------------------------------|

G-------------------------------------------------|
D-----14-12-------13-11-------13-11-------11-9----|
A-10\------14/-9\------13/-9\------13/-7\-----11--|
E-------------------------------------------------|

G-------------------------------------------------|
D-----14-12-------13-11-------13-11-------11-9----|
A-10\------14/-9\------13/-9\------13/-7\-----11--|
E-------------------------------------------------|

G--------------------------------------------------|
D-----14-12-------13-11-------13-11-------11-9-----|
A-10\------14/-9\------13/-9\------13/-7\-----11/--|
E--------------------------------------------------|

END

G------------------------------|
D-----------00h2---22h3---3-5--|
A-3---3-5----------------------|
E------------------------------|

G-------------------------------------------|
D-------7/------9/------10-9-7--------------|
A-3-3-3\--3-3-3\--3-3-3\-------10-----------|
E---------------------------------8>>>------| Finish on this and let ring.
Добавлено: 05.07.2013
Другие материалы по этой песне:
  • Аккорды и текст

Страница создана 03.04.2012
http://primanota.ru/xtc/burning-with-optimisms-flames-chords.htm
Привет, Гость.
Предлагаем пройти революционный курс по гитаре.
Подарок от PrimaNota.Ru, забирай!