PrimaNota.ru - самый крупный в мире бесплатный архив песенных текстов, аккордов, табулатур и нот


Xplore Yesterday - We Are The Same - таба, бас-таба, видео

Регистрация Запомнить меня
Войти через:  Facebook Google Twitter Vk Yandex Mail.ru

Xplore Yesterday - We Are The Same - таба, бас-таба, видео

Печатать
Просмотров: 77
tabbed by: JL Ducroiset
email    : jl@XploreYesterday.com
website  : www.XploreYesterday.com
Facebook : XYofficial
Twitter  : XYrock 
Video    : http://youtu.be/XzvNKqOsRU8


Notation:                                

  b      : bend 
  r      : release (after a bend)
  h      : hammer-on
  p      : pull-off                                 
  \      : slide down               
  /      : slide up                 
  ~      : vibrato
  x      : mute note
  P.M.___: palm mute


BPM: 204

Special tuning, the 6th string will be tuned in C (low):
C A D G B e
(If you have a 7 string: C E A G D B e. You can use this tab, don't play the E string
or adapt notes on the A string to the E string)


Hook : x2

  Cm  "Could you bear..."
e|--------------------|------------------|-----------------|--------------------|
B|--------------------|------------------|-----------------|--------------------|
G|--------------------|------------------|-----------------|--------------------|
D|--------------------|------------------|-----------------|--------------------|
A|--------------------|------------------|-----------------|--------------------|
C|-12p0-0-12p0-0-12p0-|-0-12p0-0-0-3-3-2-|-8p5-5-8p5-5-8p5-|-5-11p7-7-11p7-11p7-|
       P.M     _        _      __________     P.M    _       _      _   

  Ab                                      G
e|--------------------|------------------|-----------------|--------------------|
B|--------------------|------------------|-----------------|--------------------|
G|--------------------|------------------|-----------------|--------------------|
D|--------------------|------------------|-----------------|--------------------|
A|--------------------|------------------|-----------------|--------------------|
C|-0-12p0-0-12p0-0-12p|-0-0-12p0-0-3-3-2-|-8p5-5-8p5-5-8p5-|-5-11p7-7-11p7-11p7-|
  P.M     _      _        _      ________     P.M    _       _      _   



Pre-verse : x2

  Cm
e|-----------------|-----------------|-----------------|-----------------|
B|-----------------|-----------------|-----------------|-----------------|
G|-----------------|-----------------|-----------------|-----------------|
D|-----------------|-----------------|-----------------|-----------------|
A|-----3---3-----3-|---3-------------|-----3---3-----3-|---3-------------|
C|-0-0-0-0-0-0-0-0-|-0-0-0-0-0h3-3p2-|-0-0-0-0-0-0-0-0-|-0-0-0-0-5h8-8p7-|
   P.M   _   ___     _   ___           ___   _   ___     _   ___



Verse 1 :

  Cm  "I can't breathe..."
e|-----------------|-----------------|-----------------|-----------------|
B|-----------------|-----------------|-----------------|-----------------|
G|-----------------|-----------------|-----------------|-----------------|
D|-----------------|-----------------|-----------------|-----------------|
A|-3-----3-----3---|---3-------------|-3-----3-----3---|-----------------|
C|-0-----0-----0---|---0-----0-0-1---|-0-----0-----0---|-0-0-6---0-0-1---|
  P.M___________________________       _____________________     ___


e|-----------------|-----------------|-----------------|-------------------------|
B|-----------------|-----------------|-----------------|-------------------------|
G|-----------------|-----------------|-----------------|-------------------------|
D|-----------------|-----------------|-----------------|-------------------------|
A|-3-----3-----3---|---3-------------|-3-----3-----3---|-------------------------|
C|-0-----0-----0---|---0-----0-0-1---|-0-----0-----0---|-6-6-6-6-6-6-1-1-1-1-1-1-|
  P.M___________________________       _________________________________________


  "trapped in this cage..."
e|-----------------|-----------------|-----------------|---------------------|
B|-----------------|-----------------|-----------------|---------------------|
G|-----------------|-----------------|-----------------|---------------------|
D|-----------------|-----------------|-----------------|---------------------|
A|-----------------|-----------------|-----------------|---------------------|
C|-3p0-0-0-3p0-0-0-|-0-0-3p0-0-0-3p0-|-3p0-0-0-3p0-0-0-|-3/10-10-10-10-9-9-9-|
       P.M     _________     ___           ___     ___

e|-----------------|-----------------|-----------------|-----------------|
B|-----------------|-----------------|-----------------|-----------------|
G|-----------------|-----------------|-----------------|-----------------|
D|-----------------|-----------------|-----------------|-----------------|
A|-----------------|-----------------|-----------------|-9-9-9-9-4-4-4-4-|
C|-3p0-0-0-3p0-0-0-|-0-0-3p0-0-0-3p0-|-3p0-0-0-3p0-0-0-|-6-6-6-6-1-1-1-1-|
       P.M     _________     ___           ___     ___


Chorus : x2 (2 guitars)

  Ab  "I am sick..."                      Fm
e|-----------------|-----------------|-----------------|-----------------|
B|-----------------|-----------------|-----------------|-----------------|
G|-----------------|-----------------|-----------------|-----------------|
D|-10--10--10--10--|-10--10--10--10--|-6---6---6---6---|-6---6---6---6---|
A|-11--11--11--11--|-11--11--11--11--|-8---8---8---8---|-8---8---8---8---|
C|-8---8---8---8---|-8---8---8---8---|-5---5---5---5---|-5---5---5---5---|
 |
 |
e|-----------------|-----------------|-----------------|-----------------|
B|-----------------|-----------------|-----------------|-----------------|
G|-5---5---5---5---|-5---5---5---5--/|-7---7---7---7---|-7---7---7---7--/|
D|-x---x---x---x---|-x---x---x---x---|-x---x---x---x---|-x---x---x---x---|
A|-3---3---3---3---|-3---3---3---3--/|-5---5---5---5---|-5---5---5---5--/|
C|-----------------|-----------------|-----------------|-----------------|


  Cm
e|-----------------|-----------------|-----------------|-----------------|
B|-----------------|-----------------|-----------------|-----------------|
G|-----------------|-----------------|-----------------|-----------------|
D|-2-----------2---|-----------------|-2-----------2---|-----------------|
A|-3-----------3---|-----------------|-3-----------3---|-----------------|
C|-0-------x-x-0---|-----------------|-0-------x-x-0---|-----------------|
 |
 |
e|-----------------|-----------------|-----------------|-----------------|
B|-----------------|-----------------|-----------------|-----------------|
G|-9---9---9---9---|-9---9---9---9--/|-10--10--10--10-/|-12--12--12-/13--|
D|-x---x---x---x---|-x---x---x---x---|-x---x---x---x---|-x---x---x---x---|
A|-7---7---7---7---|-7---7---7---7--/|-8---8---8---8--/|-10--10--10-/11--|
C|-----------------|-----------------|-----------------|-----------------|


Hook

Verse 2

Chorus x4


Solo : (rhythm guitar plays the hook)


e|-11p8------8h11p8------8|h11p8------8h10p8------8|
B|-----8----8------8----8-|-----8----8------8----8-|
G|------8--8--------8--8--|------8--8--------8--8--|
D|-------10----------10---|-------10----------10---|
A|------------------------|------------------------|
C|------------------------|------------------------|
                          
e|h10p8----------------------|--------11-13-15-16-------|
B|-----9p8-------------------|12-13-15------------------|
G|--------8----------10-12-13|--------------------------|
D|---------10-9-10-12--------|--------------------------|
A|---------------------------|--------------------------|
C|---------------------------|--------------------------|

e|-15~---------------------|-15--\-----------------------|
B|-------------------------|--------8---/--13--\---9--/--|
G|-------------------------|-----------------------------|
D|-------------------------|-----------------------------|
A|-------------------------|-----------------------------|
C|-------------------------|-----------------------------|

e|-------------------13----|------------------------|
B|-15b16r15-13-15-16----13-|-12~----------------\---|
G|-------------------------|------------------------|
D|-------------------------|------------------------|
A|-------------------------|------------------------|
C|-------------------------|------------------------|

e|----11-p-8-----10-p-8----|------------------------|
B|/8----------8----------8-|-11b13r11b13r11---------|
G|-------------------------|----------------10-8----|
D|-------------------------|---------------------10-|
A|-------------------------|------------------------|
C|-------------------------|------------------------|

e|--------------------------|------------------11-13-14|
B|-------------8--9--10--11-|-12~------12-13-15--------|
G|-8--9--10--11-------------|--------------------------|
D|--------------------------|--------------------------|
A|--------------------------|--------------------------|
C|--------------------------|--------------------------|

e|-15~----------------------|------------------13-15-16|
B|------------------9-11-12-|-13~------13-15-16--------|
G|-----------8-10-12--------|--------------------------|
D|--------------------------|--------------------------|
A|--------------------------|--------------------------|
C|--------------------------|--------------------------|

e|-20~----------------------|-19b20r19b20r19b20r19b20--|
B|--------------------------|--------------------------|
G|--------------------------|--------------------------|
D|--------------------------|--------------------------|
A|--------------------------|--------------------------|
C|--------------------------|--------------------------|

e|-19b20~-------------------|
B|--------------------------|
G|--------------------------|
D|--------------------------|
A|--------------------------|
C|--------------------------|



Pre-verse 

(Ambient part)


Bridge :

  Cm
e|--------------------|----------------------|--------------------|------------------|
B|--------------------|----------------------|--------------------|------------------|
G|--------------------|----------------------|--------------------|------------------|
D|--------------------|----------------------|--------------------|------------------|
A|--------------------|----------------------|--------------------|------------------|
C|-12p0-0-12p0-0-12p0-|-0-12p0-0-13-13-13-13-|-12p0-0-12p0-0-12p0-|-0-12p0-0-3-3-6-6-|


e|--------------------|----------------------|--------------------|-----------------|
B|--------------------|----------------------|--------------------|-----------------|
G|--------------------|----------------------|--------------------|-----------------|
D|--------------------|----------------------|--------------------|-----------------|
A|--------------------|----------------------|--------------------|-----------------|
C|-12p0-0-12p0-0-12p0-|-0-12p0-0-13-13-13-13-|-12p0-0-12p0-0-12p0-|-6-6-6-6-1-1-1-1-|


   "I am an animal..."
e|-----------------|-----------------|-----------------|-----------------|
B|-----------------|-----------------|-----------------|-----------------|
G|-----------------|-----------------|-----------------|-----------------|
D|-----------------|-----------------|-----------------|-----------------|
A|-3-----3-----3---|---3-------------|-3-----3-----3---|---3-------------|
C|-0-0-0-0-0-0-0-0-|-0-0-0-0-1-x-1-1-|-0-0-0-0-0-0-0-0-|-0-0-0-0-3-3-6-6-|
     P.M   ___   _____   ___   _         ___   ___   _____   ___  


e|-----------------|-----------------|-----------------|-----------------|
B|-----------------|-----------------|-----------------|-----------------|
G|-----------------|-----------------|-----------------|-----------------|
D|-----------------|-----------------|-----------------|-----------------|
A|-3-----3-----3---|---3-------------|-----------------|-----------------|
C|-0-0-0-0-0-0-0-0-|-0-0-0-0-1-x-1-1-|-8-8-8-8-8-8-8-8-|-2-2-2-2-7-7-7-7-|
     P.M   ___   _____   ___   _      


e|-----------------|-----------------|-----------------|-----------------|
B|-----------------|-----------------|-----------------|-----------------|
G|-----------------|-----------------|-----------------|-----------------|
D|-----------------|-----------------|-----------------|-----------------|
A|-3-----3-----3---|---3-------------|-3-----3-----3---|---3-------------|
C|-0-0-0-0-0-0-0-0-|-0-0-0-0-1-x-1-1-|-0-0-0-0-0-0-0-0-|-0-0-0-0-3-3-6-6-|
     P.M   ___   _____   ___   _         ___   ___   _____   ___  


e|-----------------|-----------------|-----------------|-----------------|
B|-----------------|-----------------|-----------------|-----------------|
G|-----------------|-----------------|-----------------|-----------------|
D|-----------------|-----------------|-----------------|-----------------|
A|-3-----3-----3---|---3-------------|-----------------|-----------------|
C|-0-0-0-0-0-0-0-0-|-0-0-0-0-1-x-1-1-|-3p0-0-3p0-0-3p0-|-6-6-6-6-1-1-1-1-|
     P.M   ___   _____   ___   _           _     _


  "from a child!"
e|-----------------|-----------------|-----------------|-----------------|
B|-----------------|-----------------|-----------------|-----------------|
G|-----------------|-----------------|-----------------|-----------------|
D|-----------------|-----------------|-----------------|-----------------|
A|-3-----3-----3---|---3-------------|-3-----3-----3---|---3-------------|
C|-0-0-0-0-0-0-0-0-|-0-0-0-0-1-x-1-1-|-0-0-0-0-0-0-0-0-|-0-0-0-0-3-3-6-6-|
     P.M   ___   _____   ___   _         ___   ___   _____   ___  


e|-----------------|-----------------|-----------------|-----------------|
B|-----------------|-----------------|-----------------|-----------------|
G|-----------------|-----------------|-----------------|-----------------|
D|-----------------|-----------------|-----------------|-----------------|
A|-3-----3-----3---|---3-------------|-----------------|-----------------|
C|-0-0-0-0-0-0-0-0-|-0-0-0-0-1-x-1-1-|-8-8-8-8-8-8-8-8-|-2-2-2-2-7-7-7-7-|
     P.M   ___   _____   ___   _ 


  "from you child!"
e|-----------------|-----------------|-----------------|-----------------|
B|-----------------|-----------------|-----------------|-----------------|
G|-----------------|-----------------|-----------------|-----------------|
D|-----------------|-----------------|-----------------|-----------------|
A|-3-----3-----3---|---3-------------|-3-----3-----3---|---3-------------|
C|-0-0-0-0-0-0-0-0-|-0-0-0-0-1-x-1-1-|-0-0-0-0-0-0-0-0-|-0-0-0-0-3-3-6-6-|
     P.M   ___   _____   ___   _         ___   ___   _____   ___  


e|-----------------|-----------------|-----------------|-----------------|
B|-----------------|-----------------|-----------------|-----------------|
G|-----------------|-----------------|-----------------|-----------------|
D|-----------------|-----------------|-----------------|-----------------|
A|-3-----3-----3---|---3-------------|-----------------|-----------------|
C|-0-0-0-0-0-0-0-0-|-0-0-0-0-1-x-1-1-|-8-8-8-8-8-8-8-8-|-2-2-2-2-7-7-7-7-|
     P.M   ___   _____   ___   _ 


Chorus x2


Post-chorus :


e|-----------------|-----------------|-----------------|-----------------|
B|-----------------|-----------------|-----------------|-----------------|
G|-----------------|-----------------|-----------------|-----------------|
D|-----------------|-----------------|---5h6---5h6---5h|-6---5-6-8-6-5---|
A|--10h11-10h11-10h|11-10h11-10h11p10|-----------------|---------------8-|
C|-8-----8-----8---|--8-----8--------|-5-----5-----5---|---5-------------|
   _     _     _      _     _          _     _     _       _


e|-----------------|------------------|-----------------|-----------------|
B|-----------------|------------------|-----------------|-----------------|
G|-----------------|------------------|-----------------|-----------------|
D|-----------------|------------------|-----------------|-----------------|
A|-----10----10----|-10----10----10-10|-----7-----7-----|-7-----7---------|
C|-0-0---0-0---0-0-|---0-0---0-0------|-0-0---0-0---0-0-|---0-0---0-0-5-7-|
   ___   ___   ___     ___   ___        ___   ___   ___     ___   ___


  "We are the same..."
e|-----------------|------------------|-----------------|-----------------|
B|-----------------|------------------|-----------------|-----------------|
G|-----------------|------------------|-----------------|-----------------|
D|-10--------------|------------------|-6---------------|-----------------|
A|-11--------------|------------------|-8---------------|-----------------|
C|-8---------------|------------------|-5---------------|-----------------|


e|-----------------|------------------|-----------------|-----------------|
B|-----------------|------------------|-----------------|-----------------|
G|-----------------|------------------|-----------------|-----------------|
D|-2---------------|------------------|-----------------|-----------------|
A|-3---------------|------------------|-----------------|-----------------|
C|-0---------------|------------------|-----------------|-----------------|



Outro :


e|-----------------|-----------------|-----------------|-----------------|
B|-----------------|-----------------|-----------------|-----------------|
G|-----------------|-----------------|-----------------|-----------------|
D|-----------------|-----------------|-----------------|-----------------|
A|-----3---3-----3-|---3-----3h6-6p5-|-----3---3-----3-|---3-------------|
C|-0-0-0-0-0-0-0-0-|-0-0-0-0---------|-0-0-0-0-0-0-0-0-|-0-0-0-0-5h8-8p7-|
   P.M   _   ___     _   ___           ___   _   ___     _   ___


e|-----------------|-----------------|-----------------|-----------------|
B|-----------------|-----------------|-----------------|-----------------|
G|-----------------|-----------------|-----------------|-----------------|
D|-----------------|-----------------|-----------------|-----------------|
A|-----3---3-----3-|---3-----3h6-6p5-|-----3---3-----3-|---3-------------|
C|-0-0-0-0-0-0-0-0-|-0-0-0-0---------|-0-0-0-0-0-0-0-0-|-0-0-0-0-5h8-8-0-|
   P.M   _   ___     _   ___           ___   _   ___     _   ___


Добавлено: 20.12.2015
Другие материалы по этой песне:
  • Аккорды и текст

Страница создана 28.09.2015
http://primanota.ru/xplore-yesterday/we-are-same-chords.htm
Привет, Гость.
Предлагаем пройти революционный курс по гитаре.
Подарок от PrimaNota.Ru, забирай!