PrimaNota.ru - самый крупный в мире бесплатный архив песенных текстов, аккордов, табулатур и нот


Xplore Yesterday - Deathbat - таба, бас-таба, видео

Регистрация Запомнить меня
Войти через:  Facebook Google Twitter Vk Yandex Mail.ru

Xplore Yesterday - Deathbat - таба, бас-таба, видео

Печатать
Просмотров: 120
                       Xplore Yesterday - Deathbat (Avenged Sevenfold tribute)


tabbed by: JL Ducroiset
email    : jl@xyofficial.com
website  : www.xyofficial.com
Facebook : XYofficial
Twitter  : XYrock
iTunes   : https://itunes.apple.com/us/album/memories-now-dreams/id857639131
video    : http://youtu.be/SzPXoiOgyvI


Notation:

  b      : bend 
  r      : release (after a bend)
  h      : hammer-on
  p      : pull-off                                 
  \      : slide down               
  /      : slide up                 
  ~      : vibrato
  x      : mute note
  P.M.___: palm mute
  <  >   : natural harmonic
  A.H    : artificial harmonic



For 2 guitars
Tuning: Drop D
BPM: 130


Intro:

   Dm
e|---------------------------------------|---------------------------------------|
B|---------------------------------------|---------------------------------------|
G|---------------------------------------|---------------------------------------| 
D|---------------------------------------|---------------------------------------|
A|---------------------------------------|---------------------------------------|
D|-0---0---12h15p12p0-0---0---11h14p11p0-|-0---0---12h15p12p0-0---0---14h17p14p0-|
 | P.M.__             P.M.__               P.M.__             P.M.__
 |
e|---------------------------------------|---------------------------------------|
B|---------------------------------------|---------------------------------------|
G|---------------------------------------|---------------------------------------| 
D|---------------------------------------|---------------------------------------|
A|-0---0---------------------------------|---------------------------------------|
D|-0---0---------------------------------|---------------------------------------|


e|---------------------------------------|---------------------------------------|
B|---------------------------------------|---------------------------------------|
G|---------------------------------------|---------------------------------------| 
D|---------------------------------------|---------------------------------------|
A|---------------------------------------|---------------------------------------|
D|-0---0---12h15p12h0-0---0---11h14p11p0-|/7------------------6---------5-\-3----|
 | P.M.__             P.M.__
 |
e|---------------------------------------|---------------------------------------|
B|---------------------------------------|---------------------------------------|
G|---------------------------------------|---------------------------------------| 
D|---------------------------------------|---------------------------------------|
A|-0---0---------------------------------|---------------------------------------|
D|-0---0---------------------------------|-----------------/-12~-----------------|


e|---------------------------------------|---------------------------------------|
B|---------------------------------------|---------------------------------------|
G|---------------------------------------|---------------------------------------| 
D|---------------------------------------|---------------------------------------|
A|---------------------------------------|---------------------------------------|
D|-0---0---12h15p12p0-0---0---11h14p11p0-|-0---0---12h15p12p0-0---0---14h17p14p0-|
 | P.M.__             P.M.__               P.M.__             P.M.__
 |
e|---------------------------------------|---------------------------------------|
B|---------------------------------------|---------------------------------------|
G|---------------------------------------|---------------------------------------| 
D|---------------------------------------|---------------------------------------|
A|-0-------------------------------------|-0-------------------------------------|
D|-0-------------------------------------|-0-------------------------------------|


e|---------------------------------------|---------------------------------------|
B|---------------------------------------|---------------------------------------|
G|---------------------------------------|-14---------------13--------12---------| 
D|---------------------------------------|---------------------------------15----|
A|---------------------------------------|---------------------------------------|
D|-0---0---12h15p12p0-0---0---11h14p11p0-|---------------------------------------|
 | P.M.__             P.M.__ 
 |
e|---------------------------------------|---------------------------------------|
B|---------------------------------------|---------------------------------------|
G|---------------------------------------|-10----------------9---------8---------| 
D|---------------------------------------|----------------------------------7----|
A|-0---0----0----0----0---0----0----0----|---------------------------------------|
D|-0---0----0----0----0---0----0----0----|---------------------------------------|
   P.M._______________________________



Riff: (x2)

e|---------------------------------------|---------------------------------------|
B|---------------------------------------|---------------------------------------|
G|---------------------------------------|---------------------------------------| 
D|---------------------------------------|---------------------------------------|
A|---------------------------------------|---------------------------------------|
D|-0---0---12h15p12p0-0---0---11h14p11p0-|-0---0---12h15p12p0-0---0---14h17p14p0-|
 | P.M.__             P.M.__               P.M.__             P.M.__
 |
e|---------------------------------------|---------------------------------------|
B|---------------------------------------|---------------------------------------|
G|---------------------------------------|---------------------------------------| 
D|---------------------------------------|---------------------------------------|
A|---------------------------------------|---------------------------------------|
D|-0---0---12h15p12p0-0---0---11h14p11p0-|-0---0---12h15p12p0-0---0---14h17p14p0-|
   P.M.__             P.M.__               P.M.__             P.M.__


e|---------------------------------------|---------------------------------------|
B|---------------------------------------|---------------------------------------|
G|---------------------------------------|-14---------------13--------12---------| 
D|---------------------------------------|---------------------------------15----|
A|---------------------------------------|---------------------------------------|
D|-0---0---12h15p12p0-0---0---11h14p11p0-|---------------------------------------|
 | P.M.__             P.M.__
 |
e|---------------------------------------|---------------------------------------|
B|---------------------------------------|---------------------------------------|
G|---------------------------------------|-10----------------9---------8---------| 
D|---------------------------------------|----------------------------------7----|
A|---------------------------------------|---------------------------------------|
D|-0---0---12h15p12p0-0---0---11h14p11p0-|---------------------------------------|
   P.M.__             P.M.__


2nd time, end of the riff is different: (both guitars)

e|---------------------------------------|
B|---------------------------------------|
G|---------------------------------------| 
D|---------------------------------------|
A|-3------------2------------------------|
D|-3------------2---------/-6~-----------|



Verse: "Bored in my small room..."

   Dm
e|-----------------------------------|-----------------------------------|
B|-----------------------------------|-----------------------------------|
G|-----------------------------------|-----------------------------------| 
D|-----------------------------------|-----------------------------------|
A|-----------------------------------|-----------------------------------|
D|-12-0-0-0-0-0-0-0-0-0-0-0-0-0-12-0-|-12-0-0-0-0-0-0-0-0-0-0-0-13-0-15-0|


e|-----------------------------------|-----------------------------------|
B|-----------------------------------|-----------------------------------|
G|-----------------------------------|-----------------------------------| 
D|-----------------------------------|-----------------------------------|
A|-----------------------------------|-----------------------------------|
D|-12-0-0-0-0-0-0-0-0-0-0-0-0-0-12-0-|-12-0-0-0-0-0-0-0-9-0-0-0-9-0-10-0-|


(guitar 2 comes in and plays the same riff)

e|-----------------------------------|-----------------------------------|
B|-----------------------------------|-----------------------------------|
G|-----------------------------------|-----------------------------------| 
D|-----------------------------------|-----------------------------------|
A|-----------------------------------|-----------------------------------|
D|-12-0-0-0-0-0-0-0-0-0-0-0-0-0-12-0-|-12-0-0-0-0-0-0-0-0-0-0-0-13-0-15-0|


e|-----------------------------------|----------------------------------|
B|-----------------------------------|----------------------------------|
G|-----------------------------------|----------------------------------| 
D|-----------------------------------|----------------------------------|
A|-----------------------------------|----------------------3---2---1---|
D|-12-0-0-0-0-0-0-0-0-0-0-0-0-0-12-0-|-12-0-0-0-0-0-0-0-0-0-3---2---1---|
                                                            P.M.______

"Everything they've thrown..."

e|----------------------------------|----------------------------------|
B|----------------------------------|----------------------------------|
G|----------------------------------|----------------------------------| 
D|----------------------------------|----------------------------------|
A|----------------------------------|----------------------------------|
D|5h6p5-0---0---0---0---0---5h6p5-0-|5h6p5-0---0---0---0---0---5h6p5-0-|
 |      P.M.______________        _        __________________        _
 |
e|----------------------------------|----------------------------------|
B|----------------------------------|----------------------------------|
G|----------------------------------|----------------------------------| 
D|----------------------------------|----------------------------------|
A|----------------------------------|----------------------------------|
D|5h6p5-0---0---0---0---0---5h6p5-0-|5h6p5-0---0---0---0---0---5h6p5-0-|
        P.M.______________        _        __________________        _


e|----------------------------------|----------------------------------|
B|----------------------------------|----------------------------------|
G|----------------------------------|----------------------------------| 
D|----------------------------------|----------------------------------|
A|3h5p3-----------------------------|----------------------------------|
D|------0---0---0---0---0---5h6p5-0-|/7----------------6-------5-------|
 |      P.M.______________        _
 |
e|----------------------------------|----------------------------------|
B|----------------------------------|----------------------------------|
G|----------------------------------|----------------------------------| 
D|----------------------------------|----------------------------------|
A|3h5p3-----------------------------|----------------------------------|
D|------0---0---0---0---0---5h6p5-0-|-3----------------2-------1-------|
        P.M.______________        _


"But finally, the shepherd..."

e|----------------------------------|----------------------------------|
B|----------------------------------|----------------------------------|
G|----------------------------------|----------------------------------| 
D|----------------------------------|----------------------------------|
A|----------------------------------|----------------------------------|
D|5h6p5-0---0---0---0---0---5h6p5-0-|5h6p5-0---0---0---0---0---5h6p5-0-|
 |      P.M.______________        _        __________________        _
 |
e|----------------------------------|----------------------------------|
B|----------------------------------|----------------------------------|
G|----------------------------------|----------------------------------| 
D|----------------------------------|----------------------------------|
A|----------------------------------|----------------------------------|
D|5h6p5-0---0---0---0---0---5h6p5-0-|5h6p5-0---0---0---0---0---5h6p5-0-|
        P.M.______________        _        __________________        _


e|----------------------------------|----------------------------------|
B|----------------------------------|----------------------------------|
G|----------------------------------|----------------------------------| 
D|----------------------------------|----------------------------------|
A|-0----0----0----0-----------------|-3--------------------------------|
D|-0----0----0----0-----------------|-3-----------2~--------/6---------|
 | P.M.________
 |
e|----------------------------------|----------------------------------|
B|----------------------------------|----------------------------------|
G|----------------------------------|----------------------------------| 
D|----------------------------------|----------------------------------|
A|-0----0----0----0-----------------|-3--------------------------------|
D|-0----0----0----0-----------------|-3-----------2~--------/6---------|
   P.M.________



Pre-hook: x2 (both guitars play same riff)

e|---------------------------------|---------------------------------|
B|---------------------------------|---------------------------------|
G|---------------------------------|---------------------------------| 
D|---------------------------------|---------------------------------|
A|-0-0-0-0-----0-----------0-0-0-0-|-----0---------------------------|
D|-0-0-0-0-----0-----------0-0-0-0-|-----0---------------------------|
   P.M.____________________________________


e|---------------------------------|---------------------------------|
B|---------------------------------|---------------------------------|
G|---------------------------------|---------------------------------| 
D|---------------------------------|---------------------------------|
A|-0-0-0-0-----0-----------0-0-0-0-|-----0-----------3----2----1-----|
D|-0-0-0-0-----0-----------0-0-0-0-|-----0-----------3----2----1-----|
   P.M.____________________________________



Hook: (both guitars play same riff) "I will confess..."

- part 1:

   Bb                                      C
e|---------------------------------------|---------------------------------------|
B|---------------------------------------|---------------------------------------|
G|-3-------------------------------------|-5-------------------------------------| 
D|-3-------------------------------------|-5-------------------------------------|
A|-1-------------------------------------|-3-------------------------------------|
D|---------------------------------------|---------------------------------------|

   Dm
e|---------------------------------------|---------------------------------------|
B|---------------------------------------|---------------------------------------|
G|---------------------------------------|---------------------------------------| 
D|---------------------------------------|---------------------------------------|
A|---------------------------------------|---------------------------------------|
D|-0---0---12h15p12p0-0---0---11h14p11p0-|-0---0---12h15p12p0-0---0---14h17p14p0-|
   P.M.__             P.M.__               P.M.__             P.M.__

   Bb                                      C
e|---------------------------------------|---------------------------------------|
B|---------------------------------------|---------------------------------------|
G|-3-------------------------------------|-5-------------------------------------| 
D|-3-------------------------------------|-5-------------------------------------|
A|-1-------------------------------------|-3-------------------------------------|
D|---------------------------------------|---------------------------------------|

   Dm
e|---------------------------------------|---------------------------------------|
B|---------------------------------------|---------------------------------------|
G|---------------------------------------|---------------------------------------| 
D|---------------------------------------|---------------------------------------|
A|---------------------------------------|---------------------------------------|
D|-0---0---12h15p12p0-0---0---11h14p11p0-|-0---0---12h15p12p0-0---0---14h17p14p0-|
   P.M.__             P.M.__               P.M.__             P.M.__


- part 2: (2 different guitars parts) "My Vengeance will bring..."

   Bb                                      C
e|---------------------------------------|---------------------------------------|
B|---------------------------------------|---------------------------------------|
G|/7-------------------------------------|/9---------------------------9--b--10--| 
D|---------------------------------------|---------------------------------------|
A|---------------------------------------|---------------------------------------|
D|---------------------------------------|---------------------------------------|
 |
 |
e|---------------------------------------|---------------------------------------|
B|---------------------------------------|---------------------------------------|
G|-3-------------------------------------|-5-------------------------------------| 
D|-3-------------------------------------|-5-------------------------------------|
A|-1-------------------------------------|-3-------------------------------------|
D|---------------------------------------|---------------------------------------|


   A                                       Dm                 C
e|---------------------------------------|---------------------------------------|
B|---------------------------------------|----------------------------------10---|
G|-9-------------------------7---h---9---|/12---10--9h10p9--------------9--------| 
D|---------------------------------------|----------------10-------10------------|
A|---------------------------------------|--------------------12-----------------|
D|---------------------------------------|---------------------------------------|
 |
 |
e|---------------------------------------|---------------------------------------|
B|---------------------------------------|----------6------------------5---------|
G|-2-------------------------------------|---------------7------------------5----| 
D|-2-------------------------------------|------7------------------5-------------|
A|-0-------------------------------------|-5------------------3------------------|
D|---------------------------------------|---------------------------------------|
 
 
   Bb                                      A
e|---------------------------------------|---------------------------------------|
B|/15~----------------------15---\---14--|-14~--------------------------\--------|
G|---------------------------------------|---------------------------------------| 
D|---------------------------------------|---------------------------------------|
A|---------------------------------------|---------------------------------------|
D|---------------------------------------|---------------------------------------|
 |
 |
e|---------------------------------------|---------------------------------------|
B|---------------------------------------|---------------------------------------|
G|-3-------------------------------------|-2-------------------------------------| 
D|-3-------------------------------------|-2-------------------------------------|
A|-1-------------------------------------|-0-------------------------------------|
D|---------------------------------------|---------------------------------------|


Riff

Verse

Hook


Post-hook:

   Dm
e|---------------------------------|---------------------------------|
B|---------------------------------|---------------------------------|
G|---------------------------------|---------------------------------| 
D|---------------------------------|---------------------------------|
A|-0-------------------------------|---------------------------------|
D|-0-------------------------------|---------------------------------|


e|---------------------------------|---------------------------------|
B|---------------------------------|---------------------------------|
G|---------------------------------|---------------------------------| 
D|---------------------------------|---------------------------------|
A|---------------------------------|---------------------------------|
D|---------------------------------|---------------------------------|


e|---------------------------------|---------------------------------|
B|---------------------------------|---------------------------------|
G|---------------------------------|---------------------------------| 
D|---------------------------------|---------------------------------|
A|-0---0---0---0---0---0---0---0---|-0---0---0---0---0---0---0---0---|
D|-0---0---0---0---0---0---0---0---|-0---0---0---0---0---0---0---0---|
       P.M.______________     ___       ___________________________


e|---------------------------------|---------------13b15--------10---|
B|---------------------------------|------------------------------10-|
G|---------------------------------|---------------------------------| 
D|---------------------------------|---------------------------------|
A|---------------------------------|---------------------------------|
D|---------------------------------|---------------------------------|
 |
 |
e|---------------------------------|---------------------------------|
B|---------------------------------|---------------------------------|
G|---------------------------------|---------------------------------| 
D|---------------------------------|---------------------------------|
A|-0---0---0---0---0---0---0---0---|-3---------2---------0-----------|
D|-0---0---0---0---0---0---0---0---|-3---------2---------0-----------|
       P.M.______________     ___



Solo: (the rythm guitar plays the "Hook" chords / harmonised the solo)


   Bb                                C
e|---------------------------------|---------------------------------|
B|-13b15---------------------13----|---------------------------------|
G|------------------------10----10-|-9---------------9----10---/12---| 
D|---------------------------------|---------------------------------|
A|---------------------------------|---------------------------------|
D|---------------------------------|---------------------------------|
 |
 |
e|---------------------------------|---------------------------------|
B|---------------------------------|---------------------------------|
G|---------------------------------|-12--------------12---14--/15----| 
D|---------------------------------|---------------------------------|
A|---------------------------------|---------------------------------|
D|---------------------------------|---------------------------------|


   Dm
e|---------------------------------|14h15p14--------------------------------|
B|---------------------------------|--------13h15p13------------------------|
G|-------11~-----------------------|----------------11h12p11----------------| 
D|---------------------------------|------------------------10h12p10--------|
A|---------------------------------|--------------------------------9h10p9\5|
D|---------------------------------|----------------------------------------|
 |
 |
e|---------------------------------|----------------------------------------|
B|---------------------------------|----------------------------------------|
G|-------14~-----------------------|----------------------------------------| 
D|---------------------------------|----------------------------------------|
A|---------------------------------|----------------------------------------|
D|---------------------------------|----------------------------------------|


   Bb                                 C
e|----------------------------------|-------------------------------------|
B|----------------------------------|-------------------------------11-13-|
G|/7---------------------------9-10-|-12--9-----------------10-12-14------| 
D|----8-----------------8-10-12-----|--------10--------12-14--------------|
A|-------8---------10-12------------|-------------------------------------|
D|----------------------------------|-------------------------------------|
 |
 |
e|----------------------------------|-------------------------------------|
B|----------------------------------|-------------------------------15-17-|
G|/10--------------------------12-14|-15-12-----------------14-15-17------| 
D|----12---------------12-14-15-----|-------14---------15-17--------------|
A|-------13-------13-15-------------|-------------------------------------|
D|----------------------------------|-------------------------------------|


   Dm
e|-14----14-14-14-15-17-15-14----------------------------------|
B|---------------------------17-15-13-15-17-15-13--------------|
G|-----------------------------------------------15-14-12-14-15| 
D|-------------------------------------------------------------|
A|-------------------------------------------------------------|
D|-------------------------------------------------------------|
 |
 |
e|-------------------------------------------------------------|
B|-15~---------------------------------------------------------|
G|-------------------------------------------------------------| 
D|-------------------------------------------------------------|
A|-------------------------------------------------------------|
D|-------------------------------------------------------------|


                                                Bb
e|----13-17-13------10-13-10------------------|----------------------------------|
B|--13--------13--10--------10----------------|-13b15---------------15b17---r-13-|
G|14------------10------------10-13b14---r-10-|----------------------------------| 
D|--------------------------------------------|----------------------------------|
A|--------------------------------------------|----------------------------------|
D|--------------------------------------------|----------------------------------|
 |
 |
e|--------------------------------------------|----------------------------------|
B|--------------------------------------------|----------------------------------|
G|--------------------------------------------|----------------------------------| 
D|--------------------------------------------|----------------------------------|
A|--------------------------------------------|----------------------------------|
D|--------------------------------------------|----------------------------------|


   C                                 A                 
e|-18b20--------------/17----20----|-21------------------22----24----|
B|---------------------------------|---------------------------------|
G|---------------------------------|---------------------------------| 
D|---------------------------------|---------------------------------|
A|---------------------------------|---------------------------------|
D|---------------------------------|---------------------------------|
 |
 |
e|---------------------------------|---------------------------------|
B|---------------------------------|---------------------------------|
G|---------------------------------|---------------------------------| 
D|---------------------------------|---------------------------------|
A|---------------------------------|---------------------------------|
D|---------------------------------|---------------------------------|


   Dm               C                 Bb
e|-24b---r---22---22h24---22---20--|-20h22------------------22---21--|
B|---------------------------------|---------------------------------|
G|---------------------------------|---------------------------------| 
D|---------------------------------|---------------------------------|
A|---------------------------------|---------------------------------|
D|---------------------------------|---------------------------------|
 |
 |
e|-17---15---13---13h15---13---12--|-12h13------------------13---12--|
B|---------------------------------|---------------------------------|
G|---------------------------------|---------------------------------| 
D|---------------------------------|---------------------------------|
A|---------------------------------|---------------------------------|
D|---------------------------------|---------------------------------|


   A
e|-21---b---r---b---r-----------\--|
B|---------------------------------|
G|---------------------------------| 
D|---------------------------------|
A|---------------------------------|
D|---------------------------------|
 |
 |
e|-12---b---r---b---r-----------\--|
B|---------------------------------|
G|---------------------------------| 
D|---------------------------------|
A|---------------------------------|
D|---------------------------------|



Bridge:

- part 1: x2

   Dm
e|--------------------------------|--------------------------------|
B|--------------------------------|--------------------------------|
G|--------------------------------|--------------------------------| 
D|--------------------------------|--------------------------------|
A|/5------------------------------|/8--------------/12-------------|
D|--------------------------------|--------------------------------|
 |
 |
e|--------------------------------|--------------------------------|
B|--------------------------------|--------------------------------|
G|--------------------------------|--------------------------------| 
D|--------------------------------|--------------------------------|
A|--------------------------------|--------------------------------|
D|-0---0-0-3-0-0-2-0-0-1-0-0-0-/7-|-0---0-0-3-0-0-0-3----2----1----|
       P.M.  ___   ___   _____           ___   _____

e|--------------------------------|--------------------------------|
B|--------------------------------|--------------------------------|
G|--------------------------------|--------------------------------| 
D|--------------------------------|--------------------------------|
A|-11--------------------b--------|-r~-----------------------------|
D|--------------------------------|--------------------------------|
 |
 |
e|--------------------------------|--------------------------------|
B|--------------------------------|--------------------------------|
G|--------------------------------|--------------------------------| 
D|--------------------------------|--------------------------------|
A|--------------------------------|--------------------------------|
D|-0---0-0-3-0-0-2-0-0-1-0-0-0-/7-|-0---0-0-3-0-0-0-3----2----1----|
       P.M.  ___   ___   _____           ___   _____


- part 2: x2

e|--------------------------------|---------------------------------|
B|--------------------------------|---------------------------------|
G|--------------------------------|---------------------------------| 
D|--------------------------------|---------------------------------|
A|--------------------------------|---------------------------------|
D|-0-0-0-0-3-0-0-2-0-0-1-0-0-0-/7-|-0-0-0-0-3-0-0-0-3-3-3-2-2-2-1-1-|
 | P.M.___   ___   ___   _____      _______   _____________________
 |
e|--------------------------------|---------------------------------|
B|--------------------------------|---------------------------------|
G|--------------------------------|---------------------------------| 
D|--------------------------------|---------------------------------|
A|--------------------------------|---------------------------------|
D|-0-0-0-0-3-0-0-2-0-0-1-0-0-0-/7-|-0-0-0-0-3-0-0-0-7-7-7-6-6-6-5-5-|
   P.M.___   ___   ___   _____      _______   _____________________

e|--------------------------------|---------------------------------|
B|--------------------------------|---------------------------------|
G|--------------------------------|---------------------------------| 
D|--------------------------------|---------------------------------|
A|--------------------------------|-----------------3-----2-----1---|
D|-0-0-0-0-3-0-0-2-0-0-1-0-0-0-/7-|-0-0-0-0-3-0-0-0-3-----2-----1---|
 | P.M.___   ___   ___   _____      _______   _____
 |
e|--------------------------------|---------------------------------|
B|--------------------------------|---------------------------------|
G|--------------------------------|---------------------------------| 
D|--------------------------------|---------------------------------|
A|--------------------------------|-----------------3-----2-----1---|
D|-0-0-0-0-3-0-0-2-0-0-1-0-0-0-/7-|-0-0-0-0-3-0-0-0-3-----2-----1---|
   P.M.___   ___   ___   _____      _______   _____


- part 3:

e|---------------------------------|---------------------------------|
B|---------------------------------|---------------------------------|
G|---------------------------------|---------------------------------| 
D|---------------------------------|---------------------------------|
A|---------------------------------|---------------------------------|
D|-0-0-0-0-0-0-0/12~---------------|-0-0-0-0-0-0-0/14~---------------|
 | P.M._________                     _____________
 |
e|---------------------------------|---------------------------------|
B|---------------------------------|---------------------------------|
G|---------------------------------|---------------------------------| 
D|---------------------------------|---------------------------------|
A|---------------------------------|---------------------------------|
D|-0-0-0-0-0-0-0-0-0-0-0-0-0-0-0-0-|-0-0-0-0-0-0-0-0-0-0-0-0-0-0-0-0-|
   P.M._____________________________________________________________


e|---------------------------------|---------------------------------|
B|---------------------------------|---------------------------------|
G|---------------------------------|---------------------------------| 
D|---------------------------------|---------------------------------|
A|---------------------------------|---------------3-----------------|
D|-0-0-0-0-0-0-0/15~---------------|-0-0-0-0-0-0-0-3-----------------|
 | P.M._________                     _____________
 |
e|---------------------------------|---------------------------------|
B|---------------------------------|---------------------------------|
G|---------------------------------|---------------------------------| 
D|---------------------------------|---------------------------------|
A|---------------------------------|---------------3-----------------|
D|-0-0-0-0-0-0-0-0-0-0-0-0-0-0-0-0-|-0-0-0-0-0-0-0-3-----------------|
   P.M.___________________________________________


Hook
+ new lead guitar fill:

   Dm
e|---------------------------------|---------------------------------|
B|---------------------------------|---------------------------------|
G|---------------------------------|---------------------------------| 
D|---------------------------------|---------------------------------|
A|---------------------------------|----------------/7----8-----7----|
D|---------------------------------|---------------------------------|

   Bb                                C
e|---------------------------------|---------------------------------|
B|---------------------------------|---------------------------------|
G|---------------------------------|---------------------------------| 
D|/10~----------------------/12-10-|---------------------------------|
A|---------------------------------|\3-----------------------1---3---|
D|---------------------------------|---------------------------------|
                                                             P.M.__
   Dm
e|---------------------------------|---------------------------------|
B|---------------------------------|---------------------------------|
G|---------------------------------|---------------------------------| 
D|/7~------------------------------|---------------------------------|
A|---------------------------------|-----------------7h8p7-----------|
D|---------------------------------|-------------------------10--7---|

   Bb                                C
e|---------------------------------|---------------------------------|
B|---------------------------------|---------------------------------|
G|/10--------------7-----9----10---|/12--------------9----10----12---| 
D|---------------------------------|---------------------------------|
A|---------------------------------|---------------------------------|
D|---------------------------------|---------------------------------|

   A                                 Dm              C
e|---------------------------------|---------------------------------|
B|---------------------------------|-15-------------/17--------------|
G|-14-----b15r14~----------12--14--|--------------------------------x| 
D|---------------------------------|-------------------------------x-|
A|---------------------------------|---------------------------------|
D|---------------------------------|---------------------------------|

   Bb                                A
e|---------------------------------|---------------------------------|
B|b18----------------------18--r17-|-17~-----------------------------|
G|---------------------------------|---------------------------------| 
D|---------------------------------|---------------------------------|
A|---------------------------------|---------------------------------|
D|---------------------------------|---------------------------------|


Riff

Outro:

- part 1: (orchestral)

   Dm
e|---------------------------------|---------------------------------|
B|---------------------------------|---------------------------------|
G|---------------------------------|---------------------------------| 
D|---------------------------------|---------------------------------|
A|---------------------------------|---------------------------------|
D|-0-----------0-2-3-------6-b-7---|-6--------------\3-------2--b3r2-|
 |
e|---------------------------------|---------------------------------|
B|---------------------------------|---------------------------------|
G|---------------------------------|---------------------------------| 
D|---------------------------------|---------------------------------|
A|-0-0-0-0-0-0-0-0-0-0-0-0-0-0-0-0-|-0-0-0-0-0-0-0-0-0-0-0-0-0-0-0-0-|
D|-0-0-0-0-0-0-0-0-0-0-0-0-0-0-0-0-|-0-0-0-0-0-0-0-0-0-0-0-0-0-0-0-0-|
     P.M._____   _   _____________     _________   _   ______________


e|---------------------------------|---------------------------------|
B|---------------------------------|---------------------------------|
G|---------------------------------|---------------------------------| 
D|---------------------------------|---------------------------------|
A|---------------------------------|---------------------------------|
D|-0-----------0-2-3------/8---7---|-6---------------3-------2--b3r2-|
 |
e|---------------------------------|---------------------------------|
B|---------------------------------|---------------------------------|
G|---------------------------------|---------------------------------| 
D|---------------------------------|---------------------------------|
A|-0-0-0-0-0-0-0-0-0-0-0-0-0-0-0-0-|-0-0-0-0-0-0-0-0-----------------|
D|-0-0-0-0-0-0-0-0-0-0-0-0-0-0-0-0-|-0-0-0-0-0-0-0-0-7-------6~------|
     P.M._____   _   _____________     _________   _


- part 2 (dubstep)

e|---------------------------------|---------------------------------|
B|---------------------------------|---------------------------------|
G|---------------------------------|---------------------------------| 
D|---------------------------------|---------------------------------|
A|---------------------------------|---------------------------------|
D|-0-----------0-2-3-------6-b-7---|-6--------------\3-------2--b3r2-|
 |
e|---------------------------------|---------------------------------|
B|---------------------------------|---------------------------------|
G|---------------------------------|---------------------------------| 
D|---------------------------------|---------------------------------|
A|-0----------------0--0--0--0-----|---------------------------------|
D|-0----------------0--0--0--0-----|/6---------------7--------b8r7~--|
                    P.M.___


e|---------------------------------|---------------------------------|
B|---------------------------------|---------------------------------|
G|---------------------------------|---------------------------------| 
D|---------------------------------|---------------------------------|
A|---------------------------------|---------------------------------|
D|-0-----------0-2-3------/8---7---|-6---------------3-------3--2--1~|
 |
e|---------------------------------|---------------------------------|
B|---------------------------------|---------------------------------|
G|---------------------------------|---------------------------------| 
D|---------------------------------|---------------------------------|
A|-0----------------0--0--0--0-----|-------------------------3--2--1-|
D|-0----------------0--0--0--0-----|/6----------------7------3--2--1-|
                    P.M.___                                  P.M.___
Добавлено: 28.09.2015
Другие материалы по этой песне:
  • Аккорды и текст

Страница создана 07.09.2015
http://primanota.ru/xplore-yesterday/deathbat-chords.htm
Привет, Гость.
Предлагаем пройти революционный курс по гитаре.
Подарок от PrimaNota.Ru, забирай!