PrimaNota.ru - самый крупный в мире бесплатный архив песенных текстов, аккордов, табулатур и нот


Xpdc - Hijau Bumi Tuhan - аккорды и текст, таба, видео

Регистрация Запомнить меня
Войти через:  Facebook Google Twitter Vk Yandex Mail.ru

Xpdc - Hijau Bumi Tuhan - аккорды и текст, таба, видео

Печатать
Просмотров: 182
Hijau Bumi Tuhan
Xpdc
-------------------------------------------------------------------------------
			     HIJAU BUMI TUHAN - XPDC
-------------------------------------------------------------------------------
Tabbed by: Gmaster
Email: azz_amit@yahoo.com.my

Tuning: Standard

Lagu ni dalam versi akustik k...

Intro riff 1 x2
e|---------------------------------------------------------------------------|
B|--7--7-5--5----------------------------------------------------------------|
G|------------7--7-6--6-4-2-2/4----6-----------------------------------------|
D|---------------------------------------------------------------------------|
A|---------------------------------------------------------------------------|
E|---------------------------------------------------------------------------|
    D    C#m  Bm   A          G     A

Intro riff 2 x2
e|------0-3-2-0--------------------------------------------------------------|
B|----3---------3-2---3-2-0----8-8-8-7-5-3-3/7-5-5---------------------------|
G|--2------------------------------------------------------------------------|
D|---------------------------------------------------------------------------|
A|---------------------------------------------------------------------------|
E|---------------------------------------------------------------------------|
                  Bm       G                A

Verse = D Bm G A x2
	F#m G A x2
Chorus = D Bm Em A x4
Post chorus = G  A 
Solo = D G A D G A D Bm Em A D Bm Em A G  A

Arrangement
Intro riff 1
Intro riff 2
Verse
Verse
Chorus
Post chorus
Intro riff 1
Solo
Verse
Chorus
Chorus (guna solo intro riff2)

Sori sebab solo xde, nanti sy update lagi k..

| /  slide up
| \  slide down
| B  hammer-on
| p  pull-off
| ~  vibrato
| +  harmonic
| x  Mute note
===============================================================================

Добавлено: 19.03.2012
Другие материалы по этой песне:
  • Аккорды и текст

Страница создана 19.03.2012
http://primanota.ru/xpdc/hijau-bumi-tuhan-chords.htm
Привет, Гость.
Предлагаем пройти революционный курс по гитаре.
Подарок от PrimaNota.Ru, забирай!