PrimaNota.ru - самый крупный в мире бесплатный архив песенных текстов, аккордов, табулатур и нот


Xibalba - Soledad - таба, видео

Регистрация Запомнить меня
Войти через:  Facebook Google Twitter Vk Yandex Mail.ru

Xibalba - Soledad - таба, видео

Печатать
Просмотров: 164
Уроки эстрадного вокала в Санкт-Петербурге
http://www.facebook.com/placeoffear  

     b|----------------------|
    F#|----------------------|
GTR  D|----------------------|
 1   A|-3-2--3-1--4-3--------| x3
     E|-3-2--3-1--4-3--------|
     A|-3-2--3-1--4-3--------|
       PM   PM   PM

     b|------------------------------|
    F#|------------------------------|
GTR  D|------------------------------|
1+2  A|-3-2--3-1--4-3----------------| 
     E|-3-2--3-1--4-3--3-2-1-2-1-0-1-|
     A|-3-2--3-1--4-3--3-2-1-2-1-0-1-|
       PM   PM   PM    P M P M P MPM

     b|--------------------------|
    F#|--------------------------|
GTR  D|--------------------------|
1+2  A|--------------------------| 1,3
     E|--------------------------|
     A|-3-2--3-1--4-3--3-3--3--3-|

     b|------------------------------|
    F#|------------------------------|
GTR  D|------------------------------|
1+2  A|------------------------------| 2,4
     E|------------------------------|
     A|-3-2--3-1--4-3--4-3-2-3-2-1-1-|

     b|-----------------------------------|
    F#|-----------------------------------|
GTR  D|-----------------------------------|
1+2  A|-0----------------0----------------|
     E|-0----------------0----------------|
     A|-0----------------0----------------|

     b|-----------------------------|
    F#|-----------------------------|
GTR  D|-----------------------------|
 1   A|-0-----1-1-1-5--5-4--3-------| x2
     E|-0-000-1-1-1-3--3-4--3--2--1-|
     A|-0-000-1-1-1-3--3-4--3--2--1-|
          P M                  P  M

     b|-----------------------------|
    F#|-----------------------------|
GTR  D|-----------------------------|
 1   A|-0-----1-1-1-5--5-4--3-------| 
     E|-0-000-1-1-1-3--3-4--3--2--1-|
     A|-0-000-1-1-1-3--3-4--3--2--1-|
          P M                  P  M

     b|---|
    F#|---|
GTR  D|---|
 2   A|-0-|
     E|-0-|
     A|-0-|

     b|-----------------------------|
    F#|-----------------------------|
GTR  D|-----------------------------|
 1   A|-0-----1-1-1-5--5-4--3-------| 
     E|-0-000-1-1-1-3--3-4--3--2--1-|
     A|-0-000-1-1-1-3--3-4--3--2--1-|
          P M                  P  M

     b|-----------------------------|
    F#|-----------------------------|
GTR  D|-----------------------------|
 2   A|-------------PICK SLIDE------|
     E|-----------------------------|
     A|-----------------------------|

     b|-----------------------------|
    F#|-----------------------------|
GTR  D|-----------------------------|
1+2  A|-0-----1-1-1-5--5-4--3-------| x4
     E|-0-000-1-1-1-3--3-4--3--2--1-|
     A|-0-000-1-1-1-3--3-4--3--2--1-|
          P M                  P  M

     b|----------------------------|
    F#|----------------------------|
GTR  D|----------------------------|
1+2  A|-0-----1--1-----------------| x4
     E|-0-0-0-1--1-6-5-0-5-4-0-----|
     A|-0-0-0-1--1-------------1BD-|
          P M 

BD - BEND DOWN

     b|---------------------------------|
    F#|---------------------------------|
GTR  D|---------------------------------|
1+2  A|---------------------------------| x4
     E|-0-0-0-0-0-----------0-0-0-0-0-0-|
     A|-0-0-0-0-0-4-3-0-3-2-0-0-0-0-0-0-|
        P M P MPM           P M P M

     b|-----------------------------------|
    F#|-----------------------------------|
GTR  D|-----------------------------------|
 1   A|-0----------------0----------------|
     E|-0----------------0----------------|
     A|-0----------------0----------------|

     b|-----------------------------------|
    F#|-----------------------------------|
GTR  D|------------------7----------------|
 2   A|-0---------------------------------|
     E|-0---------------------------------|
     A|-0---------------------------------|


     b|-----------------------------|
    F#|-----------------------------|
GTR  D|-----------------------------|
1+2  A|-0-----1-1-1-5--5-4--3-------| x4
     E|-0-000-1-1-1-3--3-4--3--2--1-|
     A|-0-000-1-1-1-3--3-4--3--2--1-|
          P M                  P  M

     b|----------------------------|
    F#|----------------------------|
GTR  D|----------------------------|
1+2  A|-0-----1--1-----------------| x4
     E|-0-0-0-1--1-6-5-0-5-4-0-----|
     A|-0-0-0-1--1-------------1BD-|
          P M

BD - BEND DOWN

     b|---------------------------------|
    F#|---------------------------------|
GTR  D|---------------------------------|
1+2  A|---------------------------------| x4
     E|-0-0-0-0-0-----------0-0-0-0-0-0-|
     A|-0-0-0-0-0-4-3-0-3-2-0-0-0-0-0-0-|
        P M P MPM           P M P M

     b|----------------------------|
    F#|----------------------------|
GTR  D|----------------------------|
 1   A|-0--6-3--4-1----------------|
     E|-0--6-3--4-1----------------|
     A|-0--6-3--4-1----------------|

     b|----------------------------|
    F#|----------------------------|
GTR  D|-----------3----------------|
 2   A|-0--6-3--4------------------|
     E|-0--6-3--4------------------|
     A|-0--6-3--4------------------|

     b|-----------------------------|
    F#|-----------------------------|
GTR  D|-----------------------------|
1+2  A|------------------1---3---4--| 1,3
     E|-0000000000000000-1--03--04--|
     A|-0000000000000000-1--03--04--|
        PMPMPMPMPMPMPMPM   PM  PM

     b|--------------------------------|
    F#|--------------------------------|
GTR  D|--------------------------------|
1+2  A|--------------------------------| 2
     E|-0000000000000000-0-6-5-0-5-4---|
     A|-0000000000000000-0-----------1-|
        PMPMPMPMPMPMPMPMPM 

     b|--------------------------------|
    F#|--------------------------------|
GTR  D|--------------------------------|
1+2  A|--------------------4\3---1---1-| 4
     E|-0000000000000000-0-4\3-0-1-0-1-|
     A|-0000000000000000-0-4\3-0-1-0-1-|
        PMPMPMPMPMPMPMPMPM    PM  PM

solo

     b|-----------------------------|
    F#|-----------------------------|
GTR  D|-----------------------------|
1+2  A|------------------1---3---4--| 1,3
     E|-0000000000000000-1--03--04--|
     A|-0000000000000000-1--03--04--|
        PMPMPMPMPMPMPMPM   PM  PM

     b|--------------------------------|
    F#|--------------------------------|
GTR  D|--------------------------------|
1+2  A|--------------------------------| 2
     E|-0000000000000000-0-6-5-0-5-4---|
     A|-0000000000000000-0-----------1-|
        PMPMPMPMPMPMPMPMPM 

     b|----------------------------------|
    F#|----------------------------------|
GTR  D|----------------------------------|
1+2  A|--------------------4\3---1---1-1-| 4
     E|-0000000000000000-0-4\3-0-1-0-1-1-|
     A|-0000000000000000-0-4\3-0-1-0-1-1-|
        PMPMPMPMPMPMPMPMPM    PM  PM

     b|------------------|
    F#|------------------|
GTR  D|------------------|
1+2  A|----4\3---1---1-1-| x3
     E|--0-4\3-0-1-0-1-1-|
     A|--0-4\3-0-1-0-1-1-|
        PM    PM  PM

     b|--------------------------------|
    F#|--------------------------------|
GTR  D|--------------------------------|
1+2  A|-0--6-3--4-1-0------------------| 1,3
     E|-0--6-3--4-1-0--0-0-0-0-0-0-0-0-|
     A|-0--6-3--4-1-0--0-0-0-0-0-0-0-0-|
                       P M P M P M P M

     b|-----------------------------|
    F#|-----------------------------|
GTR  D|-------------10-9------------|
 1   A|-0--6-3--4-1-------10--13-12-| 2,4
     E|-0--6-3--4-1-----------------|
     A|-0--6-3--4-1-----------------|
                    

     b|-----------------------------|
    F#|-----------------------------|
GTR  D|-----------------------------|
 2   A|-0--6-3--4-1-10-9------------| 2,4
     E|-0--6-3--4-1-------10--13-12-|
     A|-0--6-3--4-1-----------------|

     b|------------------------------|
    F#|------------------------------|
GTR  D|------------------------------|
 1   A|-3-2--3-1--4-3----------------| 
     E|-3-2--3-1--4-3--3-2-1-2-1-0-1-|
     A|-3-2--3-1--4-3--3-2-1-2-1-0-1-|
       PM   PM   PM    P M P M P MPM

     b|------------------------------|
    F#|------------------------------|
GTR  D|------------------------------|
 2   A|-3-2--------------------------| 
     E|-3-2--------------------------|
     A|-3-2--------------------------|
       PM   

     b|----------------------|
    F#|----------------------|
GTR  D|----------------------|
1+2  A|-3-2--3-1--4-3--------| 1,3
     E|-3-2--3-1--4-3--------|
     A|-3-2--3-1--4-3--------|
       PM   PM   PM

     b|------------------------------|
    F#|------------------------------|
GTR  D|------------------------------|
1+2  A|-3-2--3-1--4-3----------------| 2,4,6
     E|-3-2--3-1--4-3--3-2-1-2-1-0-1-|
     A|-3-2--3-1--4-3--3-2-1-2-1-0-1-|
       PM   PM   PM    P M P M P MPM

     b|---------------------------|
    F#|---------------------------|
GTR  D|---------------------------|
1+2  A|-3-2--3-1--4-3-------------| 5
     E|-3-2--3-1--4-3-------------|
     A|-3-2--3-1--4-3--1-3-4-3----|
       PM   PM   PM

     b|---------------------------|
    F#|---------------------------|
GTR  D|---------------------------|
1+2  A|-3-2--3-1--4-3-------------| 7
     E|-3-2--3-1--4-3-------------|
     A|-3-2--3-1--4-3--0-1-3-3----|
       PM   PM   PM


     b|-----------------------------|
    F#|-----------------------------|
GTR  D|-----------------------------|
1+2  A|-----------------------7-----| 1,3,5,7
     E|-0-0--0-0--0-0--0-0-8-----7--|
     A|-0-0--0-0--0-0--0-0----------|
        P M  P M  P M  P M

     b|---------------------------|
    F#|---------------------------|
GTR  D|----------------------2----|
1+2  A|----------------------1----| 2,4,6,8
     E|-0-0--0-0--0-0--0-0-1-1----|
     A|-0-0--0-0--0-0--0-0-1-1----|
        P M  P M  P M  P M

     b|----------|
    F#|----------|
GTR  D|----------|
1+2  A|----------|
     E|-0-0--0-0-|
     A|-0-0--0-0-|
        P M  P M
Добавлено: 04.08.2013
Вам также может быть интересно:
Другие материалы по этой песне:
  • Аккорды и текст

Страница создана 04.08.2013
http://primanota.ru/xibalba/soledad-chords.htm
Привет, Гость.
Предлагаем пройти революционный курс по гитаре.
Подарок от PrimaNota.Ru, забирай!