PrimaNota.ru - самый крупный в мире бесплатный архив песенных текстов, аккордов, табулатур и нот


Xentrix - The Order of Chaos - текст песни, таба, видео

Регистрация Запомнить меня
Войти через:  Facebook Google Twitter Vk Yandex Mail.ru

Xentrix - The Order of Chaos - текст песни, таба, видео

Печатать
Просмотров: 135
XENTRIX    The order of chaos (Astley, Havard, Gasser, MacKenzie)
transcription by Braghieri Carlo
Genova - Biella   Italia

In the early 90',when i loved only the eastglamcoastmetal, there was a
song i loved too.... It's here!!!
>From KIN lp (1992)  of Road Runner Records label , this is a song very
powerful,one of my favourite,almost a milestone. I've tab this fuckin'
incredile song in F# tune but if you want play it in standard tune you
have to slide each fret number two steps up and give real name to each
chord. Anyway, i think it's more easy play it in F# tune.
About the solos it's more easy than you think, but i'm not sure i  can
tab just like they are.
I've some doubt,then any corrections are very WELCOMED.
For every thing: braghiericarlo@hotmail.com



  key:
p - pull off
h - hammer on
t - taping
b - bend string up
r - release bending
s - slide
v - vibrato
x - muted string
f - fast and continuous
 
     .....enjoy!


F# tun.
   A5 B5 C5 E5 F5

f# /  /  /  /  /
C# /  /  /  /  /
A  /  /  5  /  /
E  7  9  5  2  3
B  7  9  3  2  3
F# 5  7  /  0  1



RIFF1                        (E5   F5# - 2nd guitar)
1-----------------------------------------------------------|
2-----------------------------------------------------------|
3---x4h5b-----x4h5---4----------x4h5b-----x4h5---4----------|
4-2---------2------7---5-7-4v-2---------2------7---5-7-4v---|
5-2---------2-----------------2---------2-------------------|
6-0---------0-----------------0---------0-------------------|

RIFF2
1-----------------------------------|
2-----------------------------------|
3---x4h5---x4h5p4---x4h5---4--------| x2
4-2------2--------2------7---5-7-4--|
5-2------2--------2-----------------|
6-0------0--------0-----------------|

RIFF3  w/verse1
1----------------------------------------|
2----------------------------------------|
3--------------------------4-------------|
4-2----------2----------2----5---4---3---|
5-2-----2h3p22-----2h3p22----5---4---3---|
6-000...-----000...-----0-3-33---2---1---|
Everyone...

RIFF2  x1

RIFF4                            end verse1
1-----------------------------------------------------------------|
2---------------------------------------5h6p5------5h6p5----------|
3------------------5--7--4--5--4--5--7-------7b-5b------7b-5b-3---|
4-2----------2-----5--7--4--5--4--5--7----------------------------|
5-2-----2h3p22-----3--5--2--3--2--3--5----------------------------|
6-000...-----000...-----------------------------------------------|
There is...                        ...you!

                    end RIFF4
1---------------------------|
2-5h6p5------5h6p5----------|
3------7b-5b------7b-5b-3---|
4---------------------------|
5---------------------------|
6---------------------------|


verse2
(arranged just like Verse1)

INTERLUDE
E5 a lot...
There is...welcomes you!
SOLO                                ...(... then E5, C5, A5 chords)
1-----------------------------------------------|
2-6-5-6-----------------------------------------|
3-------7-5-4-5---------------------------------|
4---------------7-5-4v-2brb...------------------|
5-----------------------------------------------|
6-----------------------------------------------|
During the solo, with the E5, C5 and A5 chords, this riff
1---------------|
2---------------|
3---------------|
4---------------|
5-2p3-----------|
6----3--5p32-0--|

RIFF1/A
1----------------------------------------------|
2----------------------------------------------|
3---x4h5b---x4h5---4----------x4h5b---x4h5-----|
4-2-------2------7---5-7-4v-2-------2------4v--|
5-2-------2-----------------2-------2----------|
6-0-------0-----------------0-------0----------|


verse3   w/RIFF3 RIFF2 RIFF5

RIFF5
1-------------------------------------------------------------------|
2---------------------------------------5h6p5------5h6p5------------|
3------------------5--7--4--5--4--5--7-------7b-5b------7b-5b-4--5b-|
4-2----------2-----5--7--4--5--4--5--7------------------------------|
5-2-----2h3p22-----3--5--2--3--2--3--5------------------------------|
6-000...-----000...-------------------------------------------------|
There is...                               ...you!

1--------------------------------------------------|
2-------5h6p5------5h6p5------------------5h6p5----|
3-7b-9b------7b-5b------7b-5b-4--5b-7b-9b------4---|
4--------------------------------------------------|
5--------------------------------------------------|
6--------------------------------------------------|

DURING THE OUTRO SOLO THIS RIFF A LOT
1-----------------|
2-----------------|
3-----------------|
4-2---------------|
5-2--------2h3p2--|
6-000...000-------|
FADE
 


________________________________________________________________________________
                        Copyright (c) 2001 by , Inc.


________________________________________________________________________________
     
Добавлено: 13.11.2013
Другие материалы по этой песне:
  • Аккорды и текст

Страница создана 04.03.2012
http://primanota.ru/xentrix/the-order-of-chaos-chords.htm
Привет, Гость.
Предлагаем пройти революционный курс по гитаре.
Подарок от PrimaNota.Ru, забирай!