PrimaNota.ru - самый крупный в мире бесплатный архив песенных текстов, аккордов, табулатур и нот


Xentrix - Ghost Busters - таба, бас-таба, видео

Регистрация Запомнить меня
Войти через:  Facebook Google Twitter Vk Yandex Mail.ru

Xentrix - Ghost Busters - таба, бас-таба, видео

Печатать
Просмотров: 467
Авторы музыки: Ray Parker Jr.
Авторы текста: Ray Parker Jr.
Band:  Xentrix
Album: Ghost Busters EP
Song:  Ghost Busters

Late 80's early 90's UK thrash metal band.

Copyright (c)  (Road Racer) (1990)
Version 1.0 - (17/05/05)

Transcribed By: Steve
Email:          stephen.elvidge1@ntlworld.com


.  - palm mute           /  - slide up to
\  - slide down to       ~  - vibrato
h  - hammer on           b  - Bend
p  - pull off            Suffixes for bend
t  - tap                 f  - full bend    h - half bend
ph - pinched harmonic    q  - quarter bend t - tap bend
*  - see comment         ^  - Hold bend    r release bend
x  - Stuccatto           ~  - vibrato bend
,  - slight palm mute    () - ghost note, sustained note
"  - tremolo note        <> - Trill

Tunning E A D G B E
 
 Main Riff


  [PM]   h      [PM]    h
E--------------------------------|
B--------------------------------|
G--------------------------------|
D----------7--------------7-7----|
A-2-2------5--7--2-2------5-5-7--|
E-0-0-55-7----5--0-0-55-7-----5--| Rpt 4 X

 Lead line enters after 2nd time.

        h     h  ~~~~
E-12-12-16p12-14---------------------------|
B----------------15---171717-1717-15-17-17-|
G------------------------------------------|
D------------------------------------------|
A------------------------------------------|
E------------------------------------------|


        h     h  ~~~~
E-12-12-16p12-14---------------------------|
B----------------15---171717-1717-15-19-17-|
G------------------------------------------|
D------------------------------------------|
A------------------------------------------|
E------------------------------------------|

 Rpt Main Riff 3 X for Verse

 Bridge

  Guitar 1
E[---------------------------------------------|
B[---------------------------------------------|
G[---------------------------------------------|
D[-9-----(9)------7------(7)-------------------|
A[-7-----(7)------5------(5)-------------------|
E[---------------------------------------------|
 [Guitar 2                               h  h
E[---------------------------------------------|
B[---------------------------------------------|
G[-12br---12br---12br---12br---12br------------|
D[-----14-----14-----14-----14-----14-12-13-14-|
A[---------------------------------------------|
E[---------------------------------------------|

  Guitar 1
E[---------------------------------------------|
B[---------------------------------------------|
G[---------------------------------------------|
D[-6-----(6)------2------(2)-------------------|
A[-4-----(4)------0------(0)-------------------|
E[---------------------------------------------|
 [Guitar 2                               h  h
E[---------------------------------------------|
B[---------------------------------------------|
G[-12br---12br---12br---12br---12br------------|
D[-----14-----14-----14-----14-----14-12-13-14-|
A[---------------------------------------------|
E[---------------------------------------------|

 Rpt above with additional guitar below

 Guitar 3
E----------------------------------------------|
B-12br---12br---12br---12br---12br-------------|
G-----12-----12-----12-----12-----12-11-11-12--|
D----------------------------------------------|
A----------------------------------------------|
E----------------------------------------------|

 Last time

  Guitar 2 
   C#             A
                                   
E[------------------------------------12--12---|
B[------------------------------------15b-15b--|
G[-12br---12br---12br---12br---12br------------|
D[-----14-----14-----14-----14-----14----------|
A[---------------------------------------------|
E[---------------------------------------------|
 [Guitar 3
E[------------------------------------12--12---|
B[-12br---12br---12br---12br---12br---15b-15b--|
G[-----12-----12-----12-----12-----12----------|
D[---------------------------------------------|
A[---------------------------------------------|
E[---------------------------------------------|

 Rpt Main Riff 2 X with Lead line once.
 Rpt Verse
 Rpt Bridge
 Rpt Main Riff 2 X
 Rpt Half Verse

E--------------------------------------------------------|
B--------------------------------------------------------|
G--------------------------------------------------------|
D-9\7---------------------(7)--------------------/9-9\---|
A-7\5---------------------(5)--------------------/7-7\---|
E--------------------------------------------------------| Rpt 3 X

E--------------------------------------------------------|
B--------------------------------------------------------|
G--------------------------------------------------------|
D-9\7---------------------(7)----------------------------|
A-7\5---------------------(5)----------------------------|
E--------------------------------------------------------|

 Rpt Main Riff and Lead line 2 X

  Guitar 1
                                           ~~~~~             
E[-------------------------------------------------------------------|
B[-------------------------------------------------------------------|
G[-----------------------------------12-11-7-------------------------|
D[-4-4------------------------------------------4--------------------|
A[-2-2------------------------------------------2--------------------|
E[-------------------------------------------------------------------|
 [Guitar 2                                 ~~~~~
E[-------------------------------------------------------------------|
B[-------------------------------------------------------------------|
G[-------------------------------------------------------------------|
D[-4-4-------------------------------5--4-------4--------------------|
A[-2-2-------------------------------------5----2--------------------|
E[-------------------------------------------------------------------|

  Guitar 1
                                           ~~~~~             
E[-------------------------------------------------------------------|
B[-------------------------------------------------------------------|
G[-----------------------------------12-11-7-------------------------|
D[-4-4------------------------------------------4-4------------------|
A[-2-2------------------------------------------2-2------------------|
E[-------------------------------------------------------------------|
 [Guitar 2                                 ~~~~~
E[-------------------------------------------------------------------|
B[-------------------------------------------------------------------|
G[-------------------------------------------------------------------|
D[-4-4-------------------------------5--4-------4-4------------------|
A[-2-2-------------------------------------5----2-2------------------|
E[-------------------------------------------------------------------|

 Rpt Bridge
 Rpt Main Riff with Lead line 4 X
 Rpt Main Riff till end as song speeds up and falls apart.

END
Добавлено: 04.05.2012
Другие материалы по этой песне:
  • Аккорды и текст

Страница создана 04.05.2012
http://primanota.ru/xentrix/ghost-busters-chords.htm
Привет, Гость.
Предлагаем пройти революционный курс по гитаре.
Подарок от PrimaNota.Ru, забирай!