PrimaNota.ru - самый крупный в мире бесплатный архив песенных текстов, аккордов, табулатур и нот


Xanthochroid - Sleeping Stars - аккорды и текст, видео

Регистрация Запомнить меня
Войти через:  Facebook Google Twitter Vk Yandex Mail.ru

Xanthochroid - Sleeping Stars - аккорды и текст, видео

Печатать
Просмотров: 151
Sleeping Stars
Xanthochroid
SLEEPING STARS - XANTHOCHROID (WINTERSUN COVER)

[Intro]
Em Bm F#m C Am Em Bm Fm (2x)

E|-7------|-5----10---8----|-7----------|------------|------------|------------|--------|
B|--------|----------------|-------8----|-7-----5----|-4-----5----|-7-----8----|-5------|
G|--------|----------------|------------|------------|------------|------------|--------|
D|--------|----------------|------------|------------|------------|------------|--------|
A|--------|----------------|------------|------------|------------|------------|--------|
E|--------|----------------|------------|------------|------------|------------|--------|


E|--------|-7------|-5----10---8----|-7----------|------------|------------|-5-----7----|
B|-4------|--------|----------------|-------8----|-7-----5----|-7-----8----|------------|
G|--------|--------|----------------|------------|------------|------------|------------|
D|--------|--------|----------------|------------|------------|------------|------------|
A|--------|--------|----------------|------------|------------|------------|------------|
E|--------|--------|----------------|------------|------------|------------|------------|


E|-----------10---|-8-----5----|-7------|
B|-5--------------|------------|--------|
G|----------------|------------|--------|
D|----------------|------------|--------|
A|----------------|------------|--------|
E|----------------|------------|--------|


[Verse 1]

Em    F#m     Gm    Em
Oh, sleeping stars 
    C           A    B
Why are you so sad tonight
Em    F#m     Gm    Em
Oh, sleeping stars
         C               A        
Will you shine for me tonight
     B
Oh, sleeping stars


[Verse 2]

Em               D            C          G
Can you see them float in the night sky
        Em         D               C              Bm       Em
Can you hear those echoes of their sweet cries, creating a tune
                 D     C         G
Can you see them shine so bright
        Em         D          C                  Bm
Can you feel their loneliness through their cold light, touching you


[Instrumental Bridge]

Em     Em      Bm     Bm (x4)


[Verse 3]

Em                             Bm
My eyes feel so heavy when the stars are calling me
C#m         F#m  A
- Join with us eternally -
    C#m                           G#m
I'm falling in deep trance and my powers are weakening
     C#m           G#m          Em              
In a world between dreams and reality


[Instrumental Bridge]

Em     Em      Bm     Bm (x2)


[Verse 4]

Em                    Bm
I am now alone in the silent light
            Em                    Bm
And there's nothing but darkness around me
Em                        Bm
Deeper into unknown the strange light is guiding me
Em                     Bm
Wake me until it's too late


[Verse 5]

Em                       Bm
Suddenly I feel a warmth go through my body
C#m   F#m  A
Ooh oooh oooooh
      C#m                         G#m
But I feel that a part of me has died, I sense the change in me
   C#m            G#m     Em
I must have been away so long
    Em           Am      C
So, please, stay with me for a while


[Bridge]

Em D C G Em D C Bm (2x)

Em               D            C          G
Can you see them float in the night sky
        Em         D               C              Bm       Em
Can you hear those echoes of their sweet cries, creating a tune
                 D     C         G
Can you see them shine so bright
        Em         D          C                  Bm
Can you feel their loneliness through their cold light, touching you

[Final]

Em D C G Em D C Bm D Em
Добавлено: 27.06.2016
Вам также может быть интересно:
Другие материалы по этой песне:
  • Аккорды и текст

Страница создана 27.06.2016
http://primanota.ru/xanthochroid/sleeping-stars-chords.htm
Привет, Гость.
Предлагаем пройти революционный курс по гитаре.
Подарок от PrimaNota.Ru, забирай!