PrimaNota.ru - самый крупный в мире бесплатный архив песенных текстов, аккордов, табулатур и нот


X - Your Phones Off The Hook But Youre Not - таба, видео

Регистрация Запомнить меня
Войти через:  Facebook Google Twitter Vk Yandex Mail.ru

X - Your Phones Off The Hook But Youre Not - таба, видео

Печатать
Просмотров: 57
-------------------------------------------------------------------------------
                Your Phone's Off the Hook, But You're Not - X
-------------------------------------------------------------------------------
Tabbed by: SodaPopVilSki
E-mail: mitbbitw@hotmail.com

Tuning: Standard
  Main Riff
e|---------------------------------------------------------------------------------|
B|---------------------------------------------------------------------------------|
G|-13/14-14-14-14-13/14-14-14-14-13/14-14-14-14-12-12-11-11------------------------|
D|-13/14-14-14-14-13/14-14-14-14-13/14-14-14-14-12-12-11-11------------------------|
A|-11/12-12-12-12-11/12-12-12-12-11/12-12-12-12-10-10--9--9------------------------|
E|---------------------------------------------------------------------------------|

  
e|---------------------------------------------------------------------------------|
B|---------------------------------------------------------------------------------|
G|-13/14-14-14-14-13/14-14-14-14-13/14-14-14-14-12-12-11-11------------------------|
D|-13/14-14-14-14-13/14-14-14-14-13/14-14-14-14-12-12-11-11------------------------|
A|-11/12-12-12-12-11/12-12-12-12-11/12-12-12-12-10-10--9--9------------------------|
E|---------------------------------------------------------------------------------|


  Verse
e|---------------------------------------------------------------------------------|
B|---------------------------------------------------------------------------------|
G|-13/14-14-14-14-14-14-14-13/14-14-14-14-13/14-14-14-14-13/14-14-14-14-12-12-11-11|
D|-13/14-14-14-14-14-14-14-13/14-14-14-14-13/14-14-14-14-13/14-14-14-14-12-12-11-11|
A|-11/12-12-12-12-12-12-12-11/12-12-12-12-11/12-12-12-12-11/12-12-12-12-10-10--9--9|
E|---------------------------------------------------------------------------------|
         x  x  x  x  x  x

e|---------------------------------------------------------------------------------|
B|---------------------------------------------------------------------------------|
G|-13/14-14-14-14-13/14-14-14-14-13/14-14-14-14-12-12-11-11------------------------|
D|-13/14-14-14-14-13/14-14-14-14-13/14-14-14-14-12-12-11-11------------------------|
A|-11/12-12-12-12-11/12-12-12-12-11/12-12-12-12-10-10--9--9------------------------|
E|---------------------------------------------------------------------------------|


e|---------------------------------------------------------------------------------|
B|---------------------------------------------------------------------------------|
G|-13/14-14-14-14-14-14-14-13/14-14-14-14-13/14-14-14-14-13/14-14-14-14-12-12-11-11|
D|-13/14-14-14-14-14-14-14-13/14-14-14-14-13/14-14-14-14-13/14-14-14-14-12-12-11-11|
A|-11/12-12-12-12-12-12-12-11/12-12-12-12-11/12-12-12-12-11/12-12-12-12-10-10--9--9|
E|---------------------------------------------------------------------------------|
         x  x  x  x  x  x

e|---------------------------------------------------------------------------------|
B|---------------------------------------------------------------------------------|
G|-13/14-14-14-14-13/14-14-14-14---------------------------------------------------|
D|-13/14-14-14-14-13/14-14-14-14-12-12-12-12-10-10-9-9-11/12-12-12-12-10-10-9-9----|
A|-11/12-12-12-12-11/12-12-12-12-12-12-12-12-10-10-9-9-11/12-12-12-12-10-10-9-9----|
E|-------------------------------10-10-10-10--8--8-7-7--9/10-10-10-10--8--8-7-7----|


e|---------------------------------------------------------------------------------|
B|---------------------------------------------------------------------------------|
G|-13/14-14-14-14-14-14-14-13/14-14-14-14-13/14-14-14-14-13/14-14-14-14-12-12-11-11|
D|-13/14-14-14-14-14-14-14-13/14-14-14-14-13/14-14-14-14-13/14-14-14-14-12-12-11-11|
A|-11/12-12-12-12-12-12-12-11/12-12-12-12-11/12-12-12-12-11/12-12-12-12-10-10--9--9|
E|---------------------------------------------------------------------------------|
         x  x  x  x  x  x

  Chorus 
e|---------------------------------------------------------------------------------|
B|---------------------------------------------------------------------------------|
G|---------------------------------------------------------------------------------|
D|-12-12-10-10-9/10-10-10-10-12-12-10-10-9/10-10-10-10-12-12-10-10-9/10-10-10-10---|
A|-12-12-10-10-9/10-10-10-10-12-12-10-10-9/10-10-10-10-12-12-10-10-9/10-10-10-10---|
E|-10-10--8--8-7/8---8--8--8-10-10--8--8-7/8---8--8--8-10-10--8--8-7/8---8--8--8---|




************************************

| /   slide up
| \   slide down
| h   hammer-on
| p   pull-off
| ~   vibrato
| +   harmonic
| x   Mute note
| b   Bend
| pb  Pre-bend
| br  Bend release
| pbr Pre-bend release
| brb Bend release bend

************************************
Добавлено: 25.06.2016
Другие материалы по этой песне:
  • Аккорды и текст

Страница создана 25.06.2016
http://primanota.ru/x/your-phones-off-hook-but-youre-not-chords.htm
Привет, Гость.
Предлагаем пройти революционный курс по гитаре.
Подарок от PrimaNota.Ru, забирай!