PrimaNota.ru - самый крупный в мире бесплатный архив песенных текстов, аккордов, табулатур и нот


X-y - Rebirth - таба, бас-таба, видео

Регистрация Запомнить меня
Войти через:  Facebook Google Twitter Vk Yandex Mail.ru

X-y - Rebirth - таба, бас-таба, видео

Печатать
Просмотров: 118
                       X-Y - Rebirth

                                       Music by X-Y // Lyrics by J-L Ducroiset


tabbed by: J-L Ducroiset
email    : jl@xyrock.net
website  : www.xyrock.net
Facebook : XYofficial
Twitter  : XYrock
iTunes link: https://itunes.apple.com/fr/album/rebirth-single/id665338800
music video: http://www.youtube.com/watch?v=qlPYY-fXuoc


Notation:

  b      : bend
  r      : release (after a bend)
  h      : hammer-on
  p      : pull-off
  \      : slide down
  /      : slide up
  ~      : vibrato
  x      : mute note
  P.M.___: palm mute
  <  >   : natural harmonic


For 2 guitars


Intro:

   Fm
e|---------------------------------|---------------------------------|
B|---------------------------------|---------------------------------|
G|---------------------------------|---------------------------------|
D|-----5-----6\5-1-----1---1h5-5/6-|-----5-----6\5-1-----1-----------|
A|---------------------------------|-------------------------1h4-4p3-|
E|-1-1---x-x-------x-x---x---------|-1-1---x-x-------x-x---x---------|
 | P.M.  ___       ___   _           ___   ___       ___   _
 |
e|---------------------------------|---------------------------------|
B|---------------------------------|---------------------------------|
G|-----------------------------3h5-|---------------------------------|
D|---------------------5---5h6-----|---------------------6-----3-3\2-|
A|-----3-----3-3-3-----------------|-----3-----3-3-3---------4-------|
E|-1-1-1-x-x-1-1-1-x-x---x---------|-1-1-1-x-x-1-1-1-x-x---x---------|
   P.M.  ___       ___   _           ___   ___       ___   _


e|---------------------------------|---------------------------------|
B|---------------------------------|---------------------------------|
G|---------------------------------|---------------------------------|
D|-----5-----6\5-1---------1h5-5/6-|---------------------------------|
A|---------------------------------|-----3-----3-3-3-----------------|
E|-1-1---x-x-----------------------|-1-1-1-----1-1-1-----------------|
 | P.M.  ___                         ___
 |
e|---------------------------------|---------------------------------|
B|---------------------------------|---------------------------------|
G|-----------------------------3h5-|---------------------------------|
D|-------------------------5h6-----|---------------------------------|
A|-----3-----3-3-3-----------------|-----3-----3-3-3-----------------|
E|-1-1-1-x-x-1-1-1-----------------|-1-1-1-----1-1-1-----------------|
   P.M.  ___                         ___



Verse 1: "Tired of leaving in the past..."

   Fm                                Ab
e|---------------------------------|---------------------------------|
B|---------------------------------|---------------------------------|
G|---------------------------------|---------------------------------|
D|---------------------------------|---------------------------------|
A|-3---3-----3---3-----------------|-6---6-----6---6-----------------|
E|-1-1-1-x-x-1-1-1-x-x-x-x-x-x-x-x-|-4-4-4-x-x-4-4-4-x-x-x-x-x-x-x-x-|
 |
 |
e|---------------------------------|---------------------------------|
B|---------------------------------|---------------------------------|
G|---------------------------------|---------------------------------|
D|---------------------------------|---------------------------------|
A|-3---3-----3---3-----------------|-6---6-----6---6-----------------|
E|-1-1-1-x-x-1-1-1-x-x-x-x-x-x-x-x-|-4-4-4-x-x-4-4-4-x-x-x-x-x-x-x-x-|


   Bbm                               Db            C
e|---------------------------------|------------------------------------|
B|---------------------------------|------------------------------------|
G|---------------------------------|------------------------------------|
D|-3---3-----3---3-----------------|-6---6-----6---5---5----------------|
A|-1-1-1-x-x-1-1-1-x-x-x-x-x-x-x-x-|-4-4-4-x-x-4-x-3---3-3-3-3h4p3------|
E|---------------------------------|------------------------------3h4p3-|
 |
 |
e|---------------------------------|------------------------------------|
B|---------------------------------|------------------------------------|
G|---------------------------------|------------------------------------|
D|-3---3-----3---3-----------------|-6---6-----6---5---5----------------|
A|-1-1-1-x-x-1-1-1-x-x-x-x-x-x-x-x-|-4-4-4-x-x-4-x-3---3-3-3-3h4p3------|
E|---------------------------------|------------------------------3h4p3-|


   Fm                                Ab
e|---------------------------------|---------------------------------|
B|---------------------------------|---------------------------------|
G|---------------------------------|---------------------------------|
D|---------------------------------|---------------------------------|
A|-3---3-----3---3-----------------|-6---6-----6---6-----------------|
E|-1-1-1-1-1-1-1-1-1-1-1-1-1-1-1-1-|-4-4-4-4-4-4-4-4-4-4-4-4-4-4-4-4-|
 |
 |
e|---------------------------------|---------------------------------|
B|---------------------------------|---------------------------------|
G|---------------------------------|---------------------------------|
D|---------------------------------|---------------------------------|
A|-3---3-----3---3-----------------|-6---6-----6---6-----------------|
E|-1-1-1-1-1-1-1-1-1-1-1-1-1-1-1-1-|-4-4-4-4-4-4-4-4-4-4-4-4-4-4-4-4-|


   Bbm                               Db              Eb
e|---------------------------------|---------------------------------|
B|---------------------------------|---------------------------------|
G|---------------------------------|---------------------------------|
D|-3---3-----3---3-----------------|-6---6-----6---6/8~--------------|
A|-1-1-1-1-1-1-1-1-1-1-1-1-1-1-1-1-|-4-4-4-4-4-4-4-4/6~--------------|
E|---------------------------------|---------------------------------|
 |
 |
e|---------------------------------|---------------------------------|
B|---------------------------------|---------------------------------|
G|---------------------------------|---------------------------------|
D|-3---3-----3---3-----------------|-6---6-----6---6/8~--------------|
A|-1-1-1-1-1-1-1-1-1-1-1-1-1-1-1-1-|-4-4-4-4-4-4-4-4/6~--------------|
E|---------------------------------|---------------------------------|


   Db                                Bbm
e|---------------------------------|---------------------------------|
B|-6-------------------------------|-2-------------------------------|
G|-6-------------------------------|-3-------------------------------|
D|-6-------------------------------|-3-------------------------------|
A|-4-------------------------------|-1-------------------------------|
E|---------------------------------|---------------------------------|
 |
 |
e|---------------------------------|---------------------------------|
B|---------------------------------|---------------------------------|
G|-6-------------------------------|-3-------------------------------|
D|-6-------------------------------|-3-------------------------------|
A|-4-------------------------------|-1-------------------------------|
E|---------------------------------|---------------------------------|


   Fm                                Eb
e|---------------------------------|---------------------------------|
B|---------------------------------|-8-------------------------------|
G|-1-------------------------------|-8-------------------------------|
D|-3-------------------------------|-8-------------------------------|
A|-3-------------------------------|-6-------------------------------|
E|-1-------------------------------|---------------------------------|
 |
 |
e|---------------------------------|---------------------------------|
B|---------------------------------|---------------------------------|
G|---------------------------------|-8-------------------------------|
D|-3-------------------------------|-8-------------------------------|
A|-3-------------------------------|-6-------------------------------|
E|-1-------------------------------|---------------------------------|


   Db                                Bbm
e|---------------------------------|---------------------------------|
B|---------------------------------|---------------------------------|
G|-------------------------3h5-----|-------------------------3h5-----|
D|-6p5-3-x-x-6p5-3-x-x-6p5-----6p5-|-6p5---x-x-6p5---x-x-6p5-----6p5-|
A|---------------------------------|-----6---------6-----------------|
E|---------------------------------|---------------------------------|
 |
 |
e|---------------------------------|---------------------------------|
B|---------------------------------|---------------------------------|
G|-6-------------------------------|-3-------------------------------|
D|-6-------------------------------|-3-------------------------------|
A|-4-------------------------------|-1-------------------------------|
E|---------------------------------|---------------------------------|


   Fm                                Eb
e|---------------------------------|-----------------------------------|
B|---------------------------------|-----------------------------------|
G|-------------------------3h5-----|-----------------------------------|
D|-6p5---x-x-6p5---x-x-6p5-----6p5-|-6p5---x-x-1h3/5-x-x-5-x-5b6r5-3\1-|
A|-----3---------3-----------------|-----6-----------------------------|
E|---------------------------------|-----------------------------------|
 |
 |
e|---------------------------------|-----------------------------------|
B|---------------------------------|-----------------------------------|
G|---------------------------------|-8------------------------/5p3-----|
D|-3-------------------------------|-8-----------------------------6p5-|
A|-3-------------------------------|-6---------------------------------|
E|-1-------------------------------|-----------------------------------|



Chorus: (x2)

   Fm                                Ab
e|---------------------------------|---------------------------------|
B|---------------------------------|---------------------------------|
G|---------------------------------|---------------------------------|
D|-----5-----6\5-1-----1---1h5-5/6-|-----5-----6\5-3-----3-----------|
A|---------------------------------|-------------------------1h4-4p3-|
E|-1-1---x-x-------x-x---x---------|-4-4---x-x-------x-x---x---------|
 | P.M.  ___       ___   _           ___   ___       ___   _
 |
e|---------------------------------|---------------------------------|
B|---------------------------------|---------------------------------|
G|-----------------------------3h5-|---------------------------------|
D|---------------------5---5h6-----|---------------------6-----3-3\2-|
A|-----3-----3-3-3-----------------|-----6-----6-6-6---------4-------|
E|-1-1-1-x-x-1-1-1-x-x---x---------|-4-4-4-x-x-4-4-4-x-x---x---------|
   P.M.  ___       ___   _           ___   ___       ___   _


   Bbm                               Db            C
e|---------------------------------|---------------------------------|
B|---------------------------------|---------------------------------|
G|---------------------------------|---------------------------------|
D|-----5-----6\5-1-----1---1h5-5/6-|-----3-----3---5-----------------|
A|-1-1---x-x-------x-x---x---------|-4-4-4-x-x-4-x-3---3-3-3/4p3-----|
E|---------------------------------|-----------------------------4p3-|
 | P.M.  ___       ___   _           ___   ___   _     _____
 |
e|---------------------------------|---------------------------------|
B|---------------------------------|---------------------------------|
G|-----------------------------3h5-|------------------------/6p5-----|
D|-----3-----3-3-3-----5---5h6-----|-----6-----6---5-------------6p5-|
A|-1-1-1-x-x-1-1-1-x-x---x---------|-4-4-4-x-x-4-x-3-------x---------|
E|---------------------------------|---------------------------------|
   P.M.  ___       ___   _           ___   ___   _         _



Verse 2: "The dream was starting..."

   Fm                                Ab
e|---------------------------------|---------------------------------|
B|---1-----1-----1-----1-----1-----|---1-----1-----1-----1-----1---1-|
G|-----1-----1-----1-----1-----1---|-----1-----1-----1-----1-----1---|
D|---------------------------------|---------------------------------|
A|---------------------------------|---------------------------------|
E|-1-----1-----1-----1-----1-----1-|-4-----4-----4-----4-----4-------|
 | P.M._____________________________________________________________
 |
e|---------------------------------|---------------------------------|
B|---1-----1-----1-----1-----1-----|---1-----1-----1-----1-----1---1-|
G|-----1-----1-----1-----1-----1---|-----1-----1-----1-----1-----1---|
D|---------------------------------|---------------------------------|
A|---------------------------------|---------------------------------|
E|-1-----1-----1-----1-----1-----1-|-4-----4-----4-----4-----4-------|
   P.M._____________________________________________________________



   Bbm                               Db            C
e|---------------------------------|---------------------------------|
B|---2-----2-----2-----2-----2-----|---2-----2-----2---1-----1-----1-|
G|-----3-----3-----3-----3-----3---|-----1-----1---------0-----0-----|
D|-------3-----3-----3-----3-----3-|-------3-----3---------2-----2---|
A|-1-------------------------------|-4---------------3---------------|
E|---------------------------------|---------------------------------|
 | P.M._____________________________________________________________
 |
e|---------------------------------|---------------------------------|
B|---------------------------------|---------------------------------|
G|---3-----3-----3-----3-----3-----|---1-----1-----1---0-----0-----0-|
D|-----3-----3-----3-----3-----3---|-----3-----3---------2-----2-----|
A|-1-----1-----1-----1-----1-----1-|-4-----4-----4---3-----3-----3---|
E|---------------------------------|---------------------------------|
   P.M._____________________________________________________________



   Fm                                          Eb
e|-------------------------------------------|--------------------------------------------|
B|-------------------------------------------|--------------------------------------------|
G|-13-13-13-13-x-13-x-12-x-12-x-x-12-x-12/13-|-13/15-15-15-x-15-x-13-x-13-x-x-13\12-12-12-|
D|-------------------------------------------|--------------------------------------------|
A|-11-11-11-11-x-11-x-10-x-10-x-x-10-x-10/11-|-11/13-13-13-x-13-x-11-x-11-x-x 11\10-10-10-|
E|-------------------------------------------|--------------------------------------------|
 |
 |
e|-------------------------------------------|--------------------------------------------|
B|-------------------------------------------|--------------------------------------------|
G|-10-10-10-10-x-10-x-5--x-5--x-x-5--5--5--5-|-10/12-12-12-x-12-x-5--x-5--x-x-5--5--5--5--|
D|-------------------------------------------|--------------------------------------------|
A|-8--8--8--8--x-8--x-3--x-3--x-x-3--3--3--3-|--8/10-10-10-x-10-x-3--x-3--x-x-3--3--3--3--|
E|-------------------------------------------|--------------------------------------------|


   Bbm                                          Db                 Eb
e|--------------------------------------------|----------------------------------------------|
B|--------------------------------------------|----------------------------------------------|
G|-15/17-17-17-x-17-x-15-x-15-x-x-13-13-13-13-|-13/15-15-15-x-13-x-12-x-12-12-12-12/13-13-13-|
D|--------------------------------------------|----------------------------------------------|
A|-13/15-15-15-x-15-x-13-x-13-x-x 11-11-11-11-|-11/13-13-13-x-11-x-10-x-10-10-10-10/11-11-11-|
E|--------------------------------------------|----------------------------------------------|
 |
 |
e|--------------------------------------------|--------------------------------------------|
B|--------------------------------------------|--------------------------------------------|
G|-12/13-13-13-x-13-x-6--x-6--x-x-6--6--6--6--|--6--6--6--6-x-6--x-6/8~--------------------|
D|--------------------------------------------|--------------------------------------------|
A|-10/11-11-11-x-11-x-4--x-4--x-x-4--4--4--4--|--4--4--4--4-x-4--x-4/6~--------------------|
E|--------------------------------------------|--------------------------------------------|


   Db                                Bbm
e|---------------------------------|---------------------------------|
B|---------------------------------|---------------------------------|
G|/17~----------------------b18\15~|----------------------12b13r12---|
D|---------------------------------|---------------------------------|
A|---------------------------------|---------------------------------|
E|---------------------------------|---------------------------------|
 |
 |
e|---------------------------------|---------------------------------|
B|---------------------------------|---------------------------------|
G|---------------------------------|---------------------------------|
D|---------------------------------|---------------------------------|
A|---------------------------------|---------------------------------|
E|---------------------------------|---------------------------------|


   Fm                                Eb
e|---------------------------------|---------------------------------|
B|---------------------------------|---------------------------------|
G|----------------------12b13r12---|---------------------------------|
D|-10------------------------------|\8-------------------------------|
A|---------------------------------|---------------------------------|
E|---------------------------------|---------------------------------|
 |
 |
e|---------------------------------|---------------------------------|
B|---------------------------------|---------------------------------|
G|---------------------------------|---------------------------------|
D|---------------------------------|---------------------------------|
A|---------------------------------|---------------------------------|
E|---------------------------------|---------------------------------|


   Db                                Bbm
e|---------------------------------|---------------------------------|
B|---------------------------------|---------------------------------|
G|---------------------------------|---------------------------------|
D|-6---------------------------6-6-|-3---------------------------3-3-|
A|-4-4-4-4-4-4-4-4-4-4-4-4-4-4-4-4-|-1-1-1-1-1-1-1-1-1-1-1-1-1-1-1-1-|
E|---------------------------------|---------------------------------|
 |   P.M._____________________         P.M._____________________
 |
e|---------------------------------|---------------------------------|
B|---------------------------------|---------------------------------|
G|---------------------------------|---------------------------------|
D|-6---------------------------6-6-|-3---------------------------3-3-|
A|-4-4-4-4-4-4-4-4-4-4-4-4-4-4-4-4-|-1-1-1-1-1-1-1-1-1-1-1-1-1-1-1-1-|
E|---------------------------------|---------------------------------|
     P.M._____________________         P.M._____________________


   Fm                                Eb
e|---------------------------------|---------------------------------|
B|---------------------------------|---------------------------------|
G|---------------------------------|---------------------------------|
D|---------------------------------|-8---------------------------8-8\|
A|-3---------------------------3-3-|-6-6-6-6-6-6-6-6-6-6-6-6-6-6-6-6\|
E|-1-1-1-1-1-1-1-1-1-1-1-1-1-1-1-1-|---------------------------------|
 |   P.M._____________________         P.M._____________________
 |
e|---------------------------------|---------------------------------|
B|---------------------------------|---------------------------------|
G|---------------------------------|---------------------------------|
D|---------------------------------|-8---------------------------8-8\|
A|-3---------------------------3-3-|-6-6-6-6-6-6-6-6-6-6-6-6-6-6-6-6\|
E|-1-1-1-1-1-1-1-1-1-1-1-1-1-1-1-1-|---------------------------------|
     P.M._____________________         P.M._____________________


e|---------------------------------|
B|---------------------------------|
G|---------------------------------|
D|---------------------------------|
A|-----------------3/4-------------|
E|---------------1-----0-0-<3>~----|
 |             P.M.    ___
 |
e|---------------------------------|
B|---------------------------------|
G|---------------------------------|
D|---------------------------------|
A|---------------------------------|
E|---------------------------------|



Chorus: (x2)

   Fm                                Ab
e|---------------------------------|---------------------------------|
B|---------------------------------|---------------------------------|
G|---------------------------------|---------------------------------|
D|-----5-----6\5-1-----1---1h5-5/6-|-----5-----6\5-3-----3-----------|
A|---------------------------------|-------------------------1h4-4p3-|
E|-1-1---x-x-------x-x---x---------|-4-4---x-x-------x-x---x---------|
 | P.M.  ___       ___   _           ___   ___       ___   _
 |
e|---------------------------------|---------------------------------|
B|---------------------------------|---------------------------------|
G|-----------------------------3h5-|---------------------------------|
D|---------------------5---5h6-----|---------------------6-----3-3\2-|
A|-----3-----3-3-3-----------------|-----6-----6-6-6---------4-------|
E|-1-1-1-x-x-1-1-1-x-x---x---------|-4-4-4-x-x-4-4-4-x-x---x---------|
   P.M.  ___       ___   _           ___   ___       ___   _


   Bbm                               Db            C
e|---------------------------------|---------------------------------|
B|---------------------------------|---------------------------------|
G|---------------------------------|---------------------------------|
D|-----5-----6\5-1-----1---1h5-5/6-|-----3-----3---5-----------------|
A|-1-1---x-x-------x-x---x---------|-4-4-4-x-x-4-x-3---3-3-3/4p3-----|
E|---------------------------------|-----------------------------4p3-|
 | P.M.  ___       ___   _           ___   ___   _     _____
 |
e|---------------------------------|---------------------------------|
B|---------------------------------|---------------------------------|
G|-----------------------------3h5-|------------------------/6p5-----|
D|-----3-----3-3-3-----5---5h6-----|-----6-----6---5-------------6p5-|
A|-1-1-1-x-x-1-1-1-x-x---x---------|-4-4-4-x-x-4-x-3-------x---------|
E|---------------------------------|---------------------------------|
   P.M.  ___       ___   _           ___   ___   _         _



Bridge: "I can't regret what I've been through..."

  "Wicked prison..."
   Fm                                Eb
e|---------------------------------|---------------------------------|
B|---------------------------------|---------------------------------|
G|---------------------------------|---------------------------------|
D|-10----------10101010101010101010|-10----------10101010101010101010|
A|-8-8-8-8-8-8-8-8-8-8-8-8-8-8-8-8-|-6-6-6-6-6-6-6-6-6-6-6-6-6-6-6-6-|
E|---------------------------------|---------------------------------|
 |   P.M._____________________         P.M._____________________
 |
e|---------------------------------|---------------------------------|
B|---------------------------------|---------------------------------|
G|---------------------------------|---------------------------------|
D|-10----------10101010101010101010|-10----------10101010101010101010|
A|-8-8-8-8-8-8-8-8-8-8-8-8-8-8-8-8-|-6-6-6-6-6-8-6-6-6-6-6-6-6-6-6-6-|
E|---------------------------------|---------------------------------|
     P.M._____________________         P.M._____________________


e|---------------------------------|---------------------------------|
B|---------------------------------|---------------------------------|
G|---------------------------------|---------------------------------|
D|-8-8-8-8-8-8-8-8-8-8-8-8-8-8-8-8-|-8-8---------5-5-----------------|
A|-5-5-5-5-5-5-5-5-5-5-5-5-5-5-5-5-|-4-4---------3-3-----------------|
E|---------------------------------|---------------------------xx\---|
 |   P.M._____________________
 |
e|---------------------------------|---------------------------------|
B|---------------------------------|---------------------------------|
G|---------------------------------|---------------------------------|
D|-8-8-8-8-8-8-8-8-8-8-8-8-8-8-8-8-|-8-8---------5-5-----------------|
A|-5-5-5-5-5-5-5-5-5-5-5-5-5-5-5-5-|-4-4---------3-3-----------------|
E|---------------------------------|---------------------------xx\---|
     P.M._____________________


Outro:

   Fm
e|---------------------------------------|-------------------------------|
B|---------------------------------------|-------------------------------|
G|---------------------------------------|-------------------------------|
D|---------------------------------------|-------------------------------|
A|-3---3-----3---3--------3h4p3h4--------|-3---3-----3---3---------------|
E|-1xxx1-----1xxx1------xx-------3h4p3h4-|-1xxx1-----1xxx1------1\7~-----|
 |  P.M       P.M                           P.M       P.M
 |
e|---------------------------------------|-------------------------------|
B|---------------------------------------|-------------------------------|
G|---------------------------------------|-------------------------------|
D|---------------------------------------|-------------------------------|
A|-3---3-----3---3--------3h4p3h4--------|-3---3-----3---3---------------|
E|-1xxx1-----1xxx1------xx-------3h4p3h4-|-1xxx1-----1xxx1------1\4~-----|
    P.M       P.M                           P.M       P.M

   Fm
e|---------------------------------------|-------------------------------|
B|---------------------------------------|-------------------------------|
G|---------------------------------------|-------------------------------|
D|---------------------------------------|-------------------------------|
A|-3---3-----3---3--------3h4p3h4--------|-3---3-----3---3---------------|
E|-1xxx1-----1xxx1------xx-------3h4p3h4-|-1xxx1-----11111---------------|
 |  P.M       P.M                           P.M       P.M
 |
e|---------------------------------------|-------------------------------|
B|---------------------------------------|-------------------------------|
G|---------------------------------------|-------------------------------|
D|---------------------------------------|-------------------------------|
A|-3---3-----3---3--------3h4p3h4--------|-3---3-----3---3---------------|
E|-1xxx1-----1xxx1------xx-------3h4p3h4-|-1xxx1-----11111---------------|
    P.M       P.M                           P.M       P.M
Добавлено: 07.11.2013
Другие материалы по этой песне:
  • Аккорды и текст

Страница создана 17.10.2013
http://primanota.ru/x-y/rebirth-chords.htm
Привет, Гость.
Предлагаем пройти революционный курс по гитаре.
Подарок от PrimaNota.Ru, забирай!