PrimaNota.ru - самый крупный в мире бесплатный архив песенных текстов, аккордов, табулатур и нот


X-y - Flying - таба, видео

Регистрация Запомнить меня
Войти через:  Facebook Google Twitter Vk Yandex Mail.ru

X-y - Flying - таба, видео

Печатать
Просмотров: 104
                       
                       X-Y - Flying

                                       Music & Words by J-L Ducroiset


tabbed by: J-L Ducroiset
email    : jl@xyrock.net
website  : www.xyrock.net
Facebook : XYofficial
iTunes link: http://itunes.apple.com/us/album/flying/id470376333
music video: http://youtu.be/ziHhmb5-nDY


Notation:

  b      : bend 
  h      : hammer-on
  p      : pull-off                                 
  \      : slide down               
  /      : slide up                 
  ~      : vibrato
  x      : mute note
  P.M.   : palm mute



Intro:  (both guitars playing the same riff)
                         
   Bbm 
e|------------------|----------------------------|------------------|------------------|
B|------------------|----------------------------|------------------|------------------|
G|------------------|----------------------------|------------------|------------------| 
D|-8-8----8-8-------|-8-8----8-8-----------------|-8-8----8-8-------|-8-8----8-8-------|
A|-8-8----8-8-------|-8-8----8-8-----------------|-8-8----8-8-------|-8-8----8-8-------|
E|-6-6----6-6-------|-6-6----6-6----x-x--x-x-x-x-|-6-6----6-6-------|-6-6----6-6----\--|



Instrumental chorus: (x2)

   Bbm                                    Gb
e|--------------------------------------|--------------------------------------|
B|-9-9-9--------------------------------|-9-9-9--------------------------------|
G|-------8-8-8-10-10-10-----------------|-------8-8-8-10-10-10-----------------|
D|----------------------8-8-8-8-8-11-11-|----------------------8-8-8-8-8-11-11-|
A|--------------------------------------|--------------------------------------|
E|--------------------------------------|--------------------------------------|
 |
 | Bbm                                    Gb
e|--------------------------------------|--------------------------------------|
B|--------------------------------------|--------------------------------------|
G|--------------------------------------|--------------------------------------|
D|--------------------------------------|--------------------------------------|
A|-8-8-8-8-8-8-8--8--8--8-8-8-8-8-8--8--|-4-4-4-4-4-4-4--4--4--4-4-4-4-4-4--4--|
E|-6-6-6-6-6-6-6--6--6--6-6-6-6-6-6--6--|-2-2-2-2-2-2-2--2--2--2-2-2-2-2-2--2--|


   Ab                                     Ebm               F
e|--------------------------------------|-----------------------------------------|
B|-9-9-9--------------------------------|-9-9-9-----------------------------------|
G|-------8-8-8-10-10-10-----------------|-------8-8-8-10-10-10--------------------|
D|----------------------8-8-8-8-8-11-11-|----------------------11-11-11-10-10-6-6-|
A|--------------------------------------|-----------------------------------------|
E|--------------------------------------|-----------------------------------------|
 |
 | Ab                                     Ebm               F
e|--------------------------------------|-----------------------------------------|
B|--------------------------------------|-----------------------------------------|
G|--------------------------------------|-----------------------------------------|
D|--------------------------------------|-8-8-8-8-8-8-8--8------------------------|
A|-6-6-6-6-6-6-6--6--6--6-6-6-6-6-6--6--|-6-6-6-6-6-6-6--6--3--3--3--3--3--3--3-3-|
E|-4-4-4-4-4-4-4--4--4--4-4-4-4-4-4--4--|-------------------1--1--1--1--1--1--1-1-|
                                                           P.M.__________________



Verse 1: (guitars restart at the lyrics "The year after...")

   Bbm                                                                Ab
e|-6-----6-----6-----6-----6-------|-6----6-----6-----6-----6---6---|-4-----4-----4-----4----4---4--
B|---6-----6-----6-----6-----6---6-|---6----6-----6-----6-----6---6-|---4-----4-----4-----4----4---4
G|-----8-----8-----6-----6-----6---|-----8----8-----6-----6---------|-----5-----5-----5-----5-------
D|---------------------------------|--------------------------------|-------------------------------
A|---------------------------------|--------------------------------|-------------------------------
E|---------------------------------|--------------------------------|-------------------------------


   Ebm             F                                          
e|-6-----6-----6---5-----5-----5---|
B|---7-----7-----7---6-----6-----6-|
G|-----8-----8---------5-----5-----|
D|---------------------------------|
A|---------------------------------|
E|---------------------------------|



Chorus: (x2) (both guitars playing the same riff)

   Bbm                               Gb
e|---------------------------------|---------------------------------|
B|---------------------------------|---------------------------------|
G|---------------------------------|---------------------------------|
D|---------------------------------|---------------------------------|
A|-8-8-8-8-8-8-8-8-8-8-8-8-8-8-8-8-|-4-4-4-4-4-4-4-4-4-4-4-4-4-4-4-4-|
E|-6-6-6-6-6-6-6-6-6-6-6-6-6-6-6-6-|-2-2-2-2-2-2-2-2-2-2-2-2-2-2-2-2-|


   Ab                                Ebm             F
e|---------------------------------|---------------------------------|
B|---------------------------------|---------------------------------|
G|---------------------------------|---------------------------------|
D|---------------------------------|-8-8-8-8-8-8-8-8-----------------|
A|-6-6-6-6-6-6-6-6-6-6-6-6-6-6-6-6-|-6-6-6-6-6-6-6-6-3-3-3-3-3-3-3-3-|
E|-4-4-4-4-4-4-4-4-4-4-4-4-4-4-4-4-|-----------------1-1-1-1-1-1-1-1-|
                                                    P.M.____________ 



Pre-Verse: (both guitars playing the same riff)

   Bbm  
e|---------------------|-------------------|
B|---------------------|-------------------|
G|---------------------|-------------------| 
D|-8-8----8-8----------|-8-8----8-8--------|
A|-8-8----8-8----------|-8-8----8-8--------|
E|-6-6----6-6------x-x-|-6-6----6-6--------|



Verse 2: (same as "Verse 1", guitars restart at the lyrics "I travelled all...")

Chorus

Bridge: (both guitars playing the same riff)

   Bbm 
e|--------------------6-6-|-----------------------------|
B|--------------------6-6-|-------------------------6-8-|
G|--------------------6-6-|-------------------------6-6-|
D|-8-8----8-8-------------|-8-8------8-8------------8-8-|
A|-8-8----8-8-----8-8-----|-8-8------8-8--------8-8-----|
E|-6-6----6-6-----6-6-----|-6-6--x-x-6-6----x-x-6-6-----|


   Bbm
e|------------------------6-6-|-------------------------|
B|------------------------6-6-|-------------------------|
G|------------------------6-6-|-------------------------|
D|-8-8------8-8-----------8-8-|-8-8------8-8--------8---|
A|-8-8------8-8--------8-8----|-8-8------8-8--------8---|
E|-6-6--x-x-6-6----x-x-6-6----|-6-6--x-x-6-6----x-x-6\--|


   Gb                 Db                 F                
e|------------------|------------------|-----------------|---------------------------------|
B|------------------|------------------|-----------------|---------------------------------|
G|------------------|-6----------------|-----------------|---------------------------------| 
D|-4----------------|-6----------------|-3---------------|---------------------------------|
A|-4----------------|-4----------------|-3---------------|-3-3-3-3-3-3-3-3-3-3-3-3-3-3-3-3-|
E|-2----------------|------------------|-1---------------|-1-1-1-1-1-1-1-1-1-1-1-1-1-1-1-1-|
                                                          P.M. ___________________________


Chorus

Outro: (both guitars playing the same riff)

   Bbm 
e|--------------------6-6-|------------------------|-------------------6-6-|-----------------|
B|--------------------6-6-|--------------------6-8-|-------------------6-6-|-----------------|
G|--------------------6-6-|--------------------6-6-|-------------------6-6-|-----------------| 
D|-8-8----8-8-------------|-8-8----8-8---------8-8-|-8-8----8-8--------8-8-|-8-8----8-8------|
A|-8-8----8-8-----8-8-----|-8-8----8-8-----8-8-----|-8-8----8-8-----8-8----|-8-8----8-8------|
E|-6-6----6-6-----6-6-----|-6-6----6-6-----6-6-----|-6-6----6-6-----6-6----|-6-6----6-6------|
Добавлено: 17.06.2013
Другие материалы по этой песне:

Страница создана 17.06.2013
http://primanota.ru/x-y/flying-chords.htm
Привет, Гость.
Предлагаем пройти революционный курс по гитаре.
Подарок от PrimaNota.Ru, забирай!