PrimaNota.ru - самый крупный в мире бесплатный архив песенных текстов, аккордов, табулатур и нот


X-sinner - Peer Pressure - таба, видео

Регистрация Запомнить меня
Войти через:  Facebook Google Twitter Vk Yandex Mail.ru

X-sinner - Peer Pressure - таба, видео

Печатать
Просмотров: 183
Song: “Peer Pressure”
Artist: X-Sinner
Album: Peace Treaty

Tuning: Standard

Key:
p    = palm mute
lr   = let note/chord ring


[INTRO]
                    <---------x4------------|
e|------------------------------------------|
B|------------------------------------------|
G|------------------------------------------|
D|--2lr--------------7--2----7--2--4--------|
A|--2lr--------------5--0----5--0--2--2-----|
E|--0lr-------------------------------0-----|



[VERSE 1]
     <------------------------x2-------------------------------------|
e|-------------------------------------------------------------------|
B|-------------------------------------------------------------------|
G|-------------------------------------------------------------------|
D|---------2-----------2-7-2-----------2-----------2-7lr-----2lr-----|
A|---2-2-2-0-2-2-2-2-2-0-5-0-----2-2-2-0-2-2-2-2-2-0-5lr-----2lr-----|
E|---0-0-0---0-0-0-0-0-----------0-0-0---0-0-0-0-0-----------0lr-----|
     p p p   p p p p p           p p p   p p p p p



[CHORUS]
    <-----------------x2----------------------|
e|--------------------------------------------|
B|--------------------------------------------|
G|--------------------------------------------|
D|-----------2-----2-----2----2---2-----------|
A|------0-2--0--2--0--2--0--2-0-2-0-2-2lr-----|
E|---0-3--------0-----0-----0---0---0-0lr-----|



Repeat VERSE 1



[VERSE 2]

e|------------------------------------------------------------------------|
B|------------------------------------------------------------------------|
G|------------------------------------------------------------------------|
D|--2-4-4-2-4--2-4-4-2-4--2-2-4-4--2-4-4-2-4--2-4-4-2-4--2-4-4-4-2--------|
A|--0-2-2-0-2--0-2-2-0-2--0-0-2-2--0-2-2-0-2--0-2-2-0-2--0-2-2-2-0-5-2----|
E|-----------------------------------------------------------------3-0----|

-------------------------------------------------------------------------|
-------------------------------------------------------------------------|
-------------------------------------------------------------------------|
-------------------------------------------------------------------------|
--5-7-5--2-2-2--5-7-5--2-2--7-5--2-2-2--5-7-5--2-2-2--5-7-5--2-2-2lr-----|
--3-5-3--0-0-0--3-5-3--0-0--5-3--0-0-0--3-5-3--0-0-0--3-5-3--0-0-0lr-----|



Repeat CHORUS one time


Repeat VERSE 1 one time


Repeat VERSE 2 one time


Repeat INTRO four times


Repeat VERSE 1 four times


Repeat VERSE 2 one time


DONE!!!!!!
Добавлено: 25.02.2012
Вам также может быть интересно:
Другие материалы по этой песне:
  • Аккорды и текст

Страница создана 25.02.2012
http://primanota.ru/x-sinner/peer-pressure-chords.htm
Привет, Гость.
Предлагаем пройти революционный курс по гитаре.
Подарок от PrimaNota.Ru, забирай!