PrimaNota.ru - самый крупный в мире бесплатный архив песенных текстов, аккордов, табулатур и нот


X Japan - Miscast - текст песни, таба, бас-таба, видео

Регистрация Запомнить меня
Войти через:  Facebook Google Twitter Vk Yandex Mail.ru

X Japan - Miscast - текст песни, таба, бас-таба, видео

Печатать
Просмотров: 226
Авторы музыки: hide
Авторы текста: hide
As recorded by X Japan


        



Gtr I (Eb Ab Db Gb Bb Eb) - 'Solo'
Gtr II (Eb Ab Db Gb Bb Eb) - 'Hide'
Gtr III (Eb Ab Db Gb Bb Eb) - 'Pata'

  Q=193
 4/4
  Gtr III
  W          H    Q  E E   E E Q  E E E E   H    E E E E
|----------|-------------|----------------|---------------|
|----------|-------------|----------------|---------------|
|----------|-------------|----------------|---------------|
|----------|-----------2-|-2--------2-2-2-|--------2---2--|
|----------|-----------2-|-2--------2-2-2-|--------2---2--|
|----------|-----------0-|-0--------0-0-0-|--------0---0--|


  H    E E E E   H    Q  E E   E E Q  E E E E   H    E E E E
|--------------|-------------|----------------|--------------|
|--------------|-------------|----------------|--------------|
|--------------|-------------|----------------|--------------|
|--------2-2-2-|-----------2-|-2--------2-2-2-|--------2---2-|
|--------2-2-2-|-----------2-|-2--------2-2-2-|--------2---2-|
|--------0-0-0-|-----------0-|-0--------0-0-0-|--------0---0-|


  Gtr II
  W               E  E E  E Q.    E
|--------------|------------5-------|
|--------------|---------10-5-------|
|--------------|------------4-------|
|--------------|-19-14-9--7-7-------|
|--------------|------------7-----2-|
|--------------|-17-12-7----7-----0-|
|
| Gtr III
| H    E E E E    H         Q   E E
|--------------|--------------------|
|--------------|--------------------|
|--------------|--------------------|
|--------2-2-2-|------------------2-|
|--------2-2-2-|------------------2-|
|--------0-0-0-|------------------0-|


  +E  E E E E E +E  E   +E  E E E E E +E  E
|---------------------|---------------------|
|---------------------|---------------------|
|---------------------|---------------------|
|-----------2-3-(3)---|-------3---2---------|
|-(2)---5---0-1-(1)-2-|-(2)---1---0-5-(5)-2-|
|-(0)-0-3-0---------0-|-(0)-0---0---3-(3)-0-|
|
|  E  E Q   E E  E  E    H        E E  E  E
|---------------------|---------------------|
|---------------------|---------------------|
|---------------------|---------------------|
|--2----------2--2--2-|-------------2-----2-|
|--2----------2--2--2-|-------------2-----2-|
|--0----------0--0--0-|-------------0-----0-|


  +E  E E E E E +E  E   +E  E E E E E +E  E
|---------------------|---------------------|
|---------------------|---------------------|
|---------------------|---------------------|
|-----------2-3-(3)---|-------3---2---------|
|-(2)---5---0-1-(1)-2-|-(2)---1---0-5-(5)-2-|
|-(0)-0-3-0---------0-|-(0)-0---0---3-(3)-0-|
|
|  H        E E  E  E    H        Q    E  E
|---------------------|---------------------|
|---------------------|---------------------|
|---------------------|---------------------|
|-------------2--2--2-|-------------------2-|
|-------------2--2--2-|-------------------2-|
|-------------0--0--0-|-------------------0-|


  +E  E E E E E +E  E   +E  E E E E E +E  E
|---------------------|---------------------|
|---------------------|---------------------|
|---------------------|---------------------|
|-----------2-3-(3)---|-------3---2---------|
|-(2)---5---0-1-(1)-2-|-(2)---1---0-5-(5)-2-|
|-(0)-0-3-0---------0-|-(0)-0---0---3-(3)-0-|
|
|  E  E Q   E E  E  E    H        E E  E  E
|---------------------|---------------------|
|---------------------|---------------------|
|---------------------|---------------------|
|--2----------2--2--2-|-------------2-----2-|
|--2----------2--2--2-|-------------2-----2-|
|--0----------0--0--0-|-------------0-----0-|


  +E  E E E E E +E  E   H    Q  E E
|---------------------|-------------|
|---------------------|-------------|
|---------------------|-------------|
|-----------2-3-(3)---|-------------|
|-(2)---5---0-1-(1)-2-|-----------2-|
|-(0)-0-3-0---------0-|-----------0-|
|
|  H        E E  E  E   H    Q  E E
|---------------------|-------------|
|---------------------|-------------|
|---------------------|-------------|
|-------------2--2--2-|-------------|
|-------------2--2--2-|-----------2-|
|-------------0--0--0-|-----------0-|


  +E  E E E E E +E  E   +E  E E E E E +E  E
|---------------------|---------------------|
|---------------------|---------------------|
|---------------------|---------------------|
|-----------2-3-(3)---|-------3---2---------|
|-(2)---5---0-1-(1)-2-|-(2)---1---0-5-(5)-2-|
|-(0)-0-3-0---------0-|-(0)-0---0---3-(3)-0-|
|
| +E  E E E E E +E  E   +E  E E E E E +E  E
|---------------------|---------------------|
|---------------------|---------------------|
|---------------------|---------------------|
|-----------2-3-(3)---|-------3---2---------|
|-(2)---5---0-1-(1)-2-|-(2)---1---0-5-(5)-2-|
|-(0)-0-3-0---------0-|-(0)-0---0---3-(3)-0-|


  Gtrs II, III
  +E  E E E E E +E  E   +E  E E E E E +E  E
|---------------------|---------------------|
|---------------------|---------------------|
|---------------------|---------------------|
|-----------2-3-(3)---|-------3---2---------|
|-(2)---5---0-1-(1)-2-|-(2)---1---0-5-(5)-2-|
|-(0)-0-3-0---------0-|-(0)-0---0---3-(3)-0-|


  +E  E E E E E +E  E   +E  E E E E E +E  E
|---------------------|---------------------|
|---------------------|---------------------|
|---------------------|---------------------|
|-----------2-3-(3)---|-------3---2---------|
|-(2)---5---0-1-(1)-2-|-(2)---1---0-5-(5)-2-|
|-(0)-0-3-0---------0-|-(0)-0---0---3-(3)-0-|


  +E  E E E E E +E  E   +E  E E E E E +E  E   +W           +H     E E E E
|---------------------|---------------------|------------|----------------|
|---------------------|---------------------|------------|----------------|
|---------------------|---------------------|------------|----------------|
|-----------2-3-(3)---|-------3---2---------|------------|----------------|
|-(2)---5---0-1-(1)-2-|-(2)---1---0-5-(5)-2-|-(2)--------|-(2)----2-2-2-2-|
|-(0)-0-3-0---------0-|-(0)-0---0---3-(3)-0-|-(0)--------|-(0)----0-0-0-0-|


  +E  E E E E E +E  E   +E  E E E E E +E  E   +W           +H     E E E E
|---------------------|---------------------|------------|----------------|
|---------------------|---------------------|------------|----------------|
|---------------------|---------------------|------------|----------------|
|-----------2-3-(3)---|-------3---2---------|------------|----------------|
|-(2)---5---0-1-(1)-2-|-(2)---1---0-5-(5)-2-|-(2)--------|-(2)----2-2-2-2-|
|-(0)-0-3-0---------0-|-(0)-0---0---3-(3)-0-|-(0)--------|-(0)----0-0-0-0-|


  +E  E E E E E +E  E   +E  E E E E E E E
|---------------------|-------------------|
|---------------------|-------------------|
|---------------------|-------------------|
|-----------2-3-(3)---|-------3---2-------|
|-(2)---5---0-1-(1)-2-|-(2)---1---0-----7-|
|-(0)-0-3-0---------0-|-(0)-0---0---3-4-5-|


  +E  E E E E E +E  E   +E  E E E E E +E  E
|---------------------|---------------------|
|---------------------|---------------------|
|---------------------|-------------------4-|
|-------5---7-8-(8)---|-------8---7-5-(5)-4-|
|-(7)-------5-6-(6)-7-|-(7)---6---5---------|
|-(5)-5-8-5---------5-|-(5)-5---5---8-(8)---|


  +E  E Q  E E +E  E   +E  E E E E E E E
|--------------------|-------------------|
|-------3--5-3-(3)---|-------------------|
|-(4)---2--4-2-(2)-2-|-(2)---------------|
|-(4)--------------0-|-(0)-0-0-----------|
|-----2--------------|---------1-1-0---2-|
|--------------------|---------------3-0-|


  +E  E E E E E +E  E   +E  E E E E E +E  E
|---------------------|---------------------|
|---------------------|---------------------|
|---------------------|---------------------|
|-----------2-3-(3)---|-------3---2---------|
|-(2)---5---0-1-(1)-2-|-(2)---1---0-5-(5)-2-|
|-(0)-0-3-0---------0-|-(0)-0---0---3-(3)-0-|


  Gtr II
  +E  E E E E E +E  E   +E  E E E E  E +E  E
|---------------------|----------------------|
|---------------------|----------------------|
|---------------------|----------------------|
|-----------2-3-(3)---|-------3---2----------|
|-(2)---5---0-1-(1)-2-|-(2)---1---0--5-(5)-2-|
|-(0)-0-3-0---------0-|-(0)-0---0----3-(3)-0-|
|
| Gtr III
| +E  E E E E E +E  E   +E  E E E Q.       E
|---------------------|--------------------3-|
|---------------------|--------------------3-|
|---------------------|-----------2----------|
|-----------2-3-(3)---|-------3---2----------|
|-(2)---5---0-1-(1)-2-|-(2)---1--------------|
|-(0)-0-3-0---------0-|-(0)-0---0------------|


  +Q    E E E E E E   +Q    E E E E E E
|-------------------|-------------------|
|-------------------|-------------------|
|-------------------|-------------------|
|-------------------|-------------------|
|-(2)-------------2-|-(2)-------------2-|
|-(0)---0-0-0-0-0-0-|-(0)---0-0-0-0-0-0-|
|
| +E  E E E E E E E   +E  E E E E E E E
|-(3)-3-----------3-|-(3)-3-------------|
|-(3)-3-----------3-|-(3)-3-------------|
|-------------------|-------------------|
|-------------------|-------------------|
|-------------------|-----------------2-|
|-------0-0-0-0-0---|-------0-0-0-0-0-0-|


  +E  E E E E E +E  E   +E  E E E E  E +E  E
|---------------------|----------------------|
|---------------------|----------------------|
|---------------------|----------------------|
|-----------2-3-(3)---|-------3---2----------|
|-(2)---5---0-1-(1)-2-|-(2)---1---0--5-(5)-2-|
|-(0)-0-3-0---------0-|-(0)-0---0----3-(3)-0-|
|
| +E  E E E E E +E  E   +E  E E E Q.       E
|---------------------|--------------------3-|
|---------------------|--------------------3-|
|---------------------|-----------2----------|
|-----------2-3-(3)---|-------3---2----------|
|-(2)---5---0-1-(1)-2-|-(2)---1--------------|
|-(0)-0-3-0---------0-|-(0)-0---0------------|


  +E  E E E E E E E   +E  E E E E E E E
|-------------------|-------------------|
|-------------------|-------------------|
|-------------------|-------------------|
|-------------------|-------------------|
|-(2)-------------2-|-(2)-------------2-|
|-(0)-0-0-0-0-0-0-0-|-(0)-0-0-0-0-0-0-0-|
|
| +E  E E E E E E E   +E  E E E E E E E
|-(3)-3-----------3-|-(3)-3-------------|
|-(3)-3-----------3-|-(3)-3-------------|
|-------------------|-------------------|
|-------------------|-------------------|
|-------------------|-----------------2-|
|-------0-0-0-0-0---|-------0-0-0-0-0-0-|


  Gtrs II, III
  +E  E E E E E +E  E   +E  E E E E E E E
|---------------------|-------------------|
|---------------------|-------------------|
|---------------------|-------------------|
|-----------2-3-(3)---|-------3---2-------|
|-(2)---5---0-1-(1)-2-|-(2)---1---0-----7-|
|-(0)-0-3-0---------0-|-(0)-0---0---3-4-5-|


  +E  E E E E E +E  E   +E  E E E E E +E  E
|---------------------|---------------------|
|---------------------|---------------------|
|---------------------|-------------------4-|
|-------5---7-8-(8)---|-------8---7-5-(5)-4-|
|-(7)-------5-6-(6)-7-|-(7)---6---5---------|
|-(5)-5-8-5---------5-|-(5)-5---5---8-(8)---|


  +E  E Q  E E +E  E   +E  E E E E E E E
|--------------------|-------------------|
|-------3--5-3-(3)---|-------------------|
|-(4)---2--4-2-(2)-2-|-(2)---------------|
|-(4)--------------0-|-(0)-0-0-----------|
|-----2--------------|---------1-1-0---2-|
|--------------------|---------------3-0-|


  +E  E E E E E +E  E   +E  E E E E E +E  E
|---------------------|---------------------|
|---------------------|---------------------|
|---------------------|---------------------|
|-----------2-3-(3)---|-------3---2---------|
|-(2)---5---0-1-(1)-2-|-(2)---1---0-5-(5)-2-|
|-(0)-0-3-0---------0-|-(0)-0---0---3-(3)-0-|


  Gtr II
  +E  E E E E E +S  S E   +E  E E E E E E E   +H     +Q.   E   +H     E E E E
|-----------------------|-------------------|----------------|-----------------|
|-----------------------|-------------------|----------------|-----------------|
|-----------------------|-----3-2-0---------|----------------|-----------------|
|-----------2-3-(3)---2-|-(2)-------2---0-5-|-(5)----(5)-----|--------2-1-0-5--|
|-(2)---5---0-1-(1)-----|-------------2---3-|-(3)----(3)---5-|-(5)----------3--|
|-(0)-0-3-0-------------|-------------------|--------------3-|-(3)-------------|
|
| Gtr III
| +E  E E E E E +E    E   +E  E E E E E E E   +H     +Q.   E   +H     E E E E
|-----------------------|-------------------|----------------|-----------------|
|-----------------------|-------------------|----------------|-----------------|
|-----------------------|-----3-2-0---------|----------------|-----------------|
|-----------2-3-(3)---2-|-(2)-------2---0-5-|-(5)----(5)-----|--------2-1-0-5--|
|-(2)---5---0-1-(1)-----|-------------2---3-|-(3)----(3)---5-|-(5)----------3--|
|-(0)-0-3-0-------------|-------------------|--------------3-|-(3)-------------|


  +H     +Q.   E   +H     E E E E   +E  E E E E E E E   E E E E E E +E  E
|----------------|----------------|-------------------|-------------------|
|----------------|----------------|-------0---1---3---|-5---3---1-3-(3)---|
|----------------|----------------|-------------------|-------------------|
|-(5)----(5)-----|--------2-1-0---|-------------------|-------------------|
|-(3)----(3)---5-|-(5)----------0-|-(0)-0---0---0---0-|-------0---------2-|
|--------------3-|-(3)------------|-------------------|---5---------------|
|
| +H     +Q.   E   +H     E E E E   +E  E E E E E E E   E E E E E E +E  E
|----------------|----------------|-------------------|-------------------|
|----------------|----------------|-------------------|-------------------|
|----------------|----------------|-------0---2---4---|-5---4-------------|
|-(5)----(5)-----|--------2-1-0---|-------------------|---------7-9-(9)---|
|-(3)----(3)---5-|-(5)----------0-|-(0)-0---0---0-----|-------------------|
|--------------3-|-(3)------------|-----------------5-|---5---5---------7-|


  +E  E Q  E E +E  E   +E  E Q  E E E  E    +H      +Q.   E   +H     E E E E
|--------------------|-------------------|------------------|----------------|
|--------------------|-------------------|------------------|----------------|
|--------------------|-------------------|------------------|----------------|
|-------4--3-4-(4)---|-------4----0----5-|--(5)-----(5)-----|--------2-1-0-5-|
|-(2)-2------------2-|-(2)-2----2---2--3-|--(3)-----(3)---5-|-(5)----------3-|
|--------------------|-------------------|----------------3-|-(3)------------|
|
| +E  E Q  E E  E  E   +E  E Q  E E E  E    +H      +Q.   E   +H     E E E E
|--------------------|-------------------|------------------|----------------|
|--------------------|-------------------|------------------|----------------|
|--------------------|-------------------|------------------|----------------|
|--------------------|-------------------|------------------|--------2-1-0-5-|
|-------9--8-9-------|-------9----5---10-|-(10)----(10)---5-|-(5)----------3-|
|-(7)-7------------7-|-(7)-7----7---7--8-|--(8)-----(8)---3-|-(3)------------|


  Gtrs II, III
  +H     +Q.   E   +H     E E E E   +W           H    +E  E +Q
|----------------|----------------|------------|-----------------|
|----------------|----------------|------------|-----------------|
|----------------|----------------|------------|-2----(2)--------|
|-(5)----(5)-----|--------2-1-0-5-|-(5)--------|-0----(0)-1-(1)--|
|-(3)----(3)---5-|-(5)----------3-|-(3)--------|-----------------|
|--------------3-|-(3)------------|------------|-----------------|


  E E E E E E E E   E E E E E E E E   +Q   Q  E E +E  E   +Q   Q  E E +E  E
|-----------------|-----------------|-------------------|-------------------|
|-3-----3-----3---|---3-------------|-------------------|-----------------3-|
|-4-----4-----4---|---4-----------0-|-(0)-------------4-|-(4)--2--0-2-(2)-2-|
|-2-----2-----2---|---2-----------2-|-(2)--4--2-4-(4)-5-|-(5)--4--2-4-(4)-0-|
|-----------------|-------------0---|------5--3-5-(5)---|-------------------|
|---0-0---0-0---0-|-0---0-0-3-0-----|-------------------|-------------------|


  Gtr II
  +H     +Q.   E   +E  E E E E E E E   +Q   Q  E E +E  E   +Q   Q  E E +E  E
|----------------|-------------------|-------------------|-------------------|
|-(3)----(3)---5-|-(5)---------------|-------------------|-----------------3-|
|-(2)----(2)---4-|-(4)-------------0-|-(0)-------------4-|-(4)--2--0-2-(2)-2-|
|-(0)----(0)---2-|-(2)-------0---0-2-|-(2)--4--2-4-(4)-5-|-(5)--4--2-4-(4)-0-|
|----------------|-----0-1-2---2-----|------5--3-5-(5)---|-------------------|
|----------------|-------------------|-------------------|-------------------|
|
| Gtr III
| +H     +Q.   E   +E  E E E E E E E   +Q   Q  E E +E  E   +Q   Q  E E  E  E
|----------------|-------------------|-------------------|-------------------|
|-(3)----(3)---5-|-(5)---------------|-------------------|--------------3----|
|-(2)----(2)---4-|-(4)-------------0-|-(0)-------------4-|-(4)--2--0-2--2----|
|-(0)----(0)---2-|-(2)-------0---0-2-|-(2)--4--2-4-(4)-5-|-(5)--4--2-4--0----|
|----------------|-----0-1-2---2-----|------5--3-5-(5)---|-------------------|
|----------------|-------------------|-------------------|-------------------|


  Gtrs II, III
  +Q   Q  E E E E   +H     E E Q    Q  Q  E E +E  E   +Q   Q  E E +E  E
|-----------------|---------------|-----------------|-------------------|
|-(3)--3----------|---------------|-----------------|-----------------3-|
|-(2)--2----------|---------------|-0-------------4-|-(4)--2--0-2-(2)-2-|
|-(0)--0----------|---------------|-2--4--2-4-(4)-5-|-(5)--4--2-4-(4)-0-|
|---------------2-|-(2)-----------|----5--3-5-(5)---|-------------------|
|---------3-2-1-0-|-(0)----0-2-3--|-----------------|-------------------|


  +H     +Q.   E   +E  E E E E E E E   +Q   Q  E E +E  E   +Q   Q  E E +E  E
|----------------|-------------------|-------------------|-------------------|
|-(3)----(3)---5-|-(5)---------------|-------------------|-----------------3-|
|-(2)----(2)---4-|-(4)-------------0-|-(0)-------------4-|-(4)--2--0-2-(2)-2-|
|-(0)----(0)---2-|-(2)-------0---0-2-|-(2)--4--2-4-(4)-5-|-(5)--4--2-4-(4)-0-|
|----------------|-----0-1-2---2-----|------5--3-5-(5)---|-------------------|
|----------------|-------------------|-------------------|-------------------|


  +Q   Q  E E E E   +E  E E E E E +E  E
|-----------------|---------------------|
|-(3)--3----------|---------------------|
|-(2)--2----------|---------------------|
|-(0)--0----------|-----------2-3-(3)---|
|---------------2-|-(2)---5---0-1-(1)-2-|
|---------3-2-1-0-|-(0)-0-3-0---------0-|


  +E  E E E E E +E  E   +E  E E E E E +E  E
|---------------------|---------------------|
|---------------------|---------------------|
|---------------------|---------------------|
|-------3---2---------|-----------2-3-(3)---|
|-(2)---1---0-5-(5)-2-|-(2)---5---0-1-(1)-2-|
|-(0)-0---0---3-(3)-0-|-(0)-0-3-0---------0-|


  +E  E E E E E +E  E   +E  E E E E E +E  E
|---------------------|---------------------|
|---------------------|---------------------|
|---------------------|---------------------|
|-------3---2---------|-----------2-3-(3)---|
|-(2)---1---0-5-(5)-2-|-(2)---5---0-1-(1)-2-|
|-(0)-0---0---3-(3)-0-|-(0)-0-3-0---------0-|


  +E  E E E E E +E  E   +E  E E E E E +E  E
|---------------------|---------------------|
|---------------------|---------------------|
|---------------------|---------------------|
|-------3---2---------|-----------2-3-(3)---|
|-(2)---1---0-5-(5)-2-|-(2)---5---0-1-(1)-2-|
|-(0)-0---0---3-(3)-0-|-(0)-0-3-0---------0-|


  Gtr I
   W                   W
|-------------------|---------------------|
|-------------------|---------------------|
|-------------------|---------------------|
|-------------------|---------------------|
|-------------------|---------------------|
|-------------------|---------------------|
|
| Gtr II
| +E  E E E E E E E   +W
|-------------------|---------------------|
|-------------------|---------------------|
|-------------------|---------------------|
|-------3---2-------|---------------------|
|-(2)---1---0-----7-|-(7)-----------------|
|-(0)-0---0---3-4-5-|-(5)-----------------|
|
| Gtr III
| +E  E E E E E E E   +E  E E E E E +E  E
|-------------------|---------------------|
|-------------------|---------------------|
|-------------------|---------------------|
|-------3---2-------|-------5---7-8-(8)---|
|-(2)---1---0-----7-|-(7)-------5-6-(6)-7-|
|-(0)-0---0---3-4-5-|-(5)-5-8-5---------5-|


   H         Q    E E   +W
|---------------------|-------------------|
|-------------------0-|-(0)---------------|
|-------------------0-|-(0)---------------|
|-------------------0-|-(0)---------------|
|---------------------|-------------------|
|---------------------|-------------------|
|
| +H        +E  E E E   +W
|---------------------|-------------------|
|---------------------|-------------------|
|---------------------|-------------------|
|---------------------|-------------------|
|-(7)-------(7)-----7-|-(7)---------------|
|-(5)-------(5)-3-4-5-|-(5)---------------|
|
| +E  E E E  E  E E E   +E  E E E E E E E
|---------------------|-------------------|
|---------------------|-------------------|
|---------------------|-------------------|
|-------8----7--5-----|-------5---7-8-7-5-|
|-(7)---6----5------7-|-(7)-------5-6-5---|
|-(5)-5---5-----8---5-|-(5)-5-8-5-------8-|


  Gtr II
  E E E E E E E E   +E  E E E Q       E E
|-----------------|-----------------------|
|---------------4-|-(4)-4-3-------------4-|
|---5---7---5---3-|-(3)-3-2-------------3-|
|---5---7---5-----|-----------------------|
|-----------------|-----------------------|
|-----------------|-----------------------|
|
| Gtr III
| E E E E E E E E   +E  E E E S S S S E E
|-----------------|-----------------------|
|---------------4-|-(4)-4-3---------------|
|---5---7---5---3-|-(3)-3-2-------------8-|
|---5---7---5-----|---------------------8-|
|-----------------|-----------3-3-4-5-6---|
|-----------------|-----------------------|


  +S  S E E E Q         E  E    +E   E  E E E  E E  E
|----------------------------|-------------------------|
|-(4)---4-3----------------4-|--(4)--4--3------1----1--|
|-(3)---3-2----------------3-|--(3)--3--2------0----0--|
|----------------------------|-------------------------|
|----------------------------|-------------------------|
|----------------------------|-------------------------|
|
| +E    E E E S S S  S  E  E    +E   E  E E E  E E  E
|----------------------------|-------------------------|
|----------------------------|-------------------------|
|-(8)---8-7------------------|-------------------------|
|-(8)---8-7---------------13-|-(13)-13-12-----10---10--|
|-------------------------13-|-(13)-13-12-----10---10--|
|-------------8-8-9-10-11----|-------------------------|


  Gtr I
  H    Q  E E   +H        E E E E
|-------------|-------------------|
|-------------|-------------------|
|-----------4-|-(4)-------2-------|
|-------------|-------------4-3-2-|
|-------------|-------------------|
|-------------|-------------------|
|
| Gtrs II, III
| H    Q  E E   +E  E E E E E E E
|-------------|-------------------|
|-------------|-------------------|
|-------------|-------------------|
|-------------|-----------------2-|
|-----------2-|-(2)-4-4-4-4-4-4-0-|
|-----------0-|-(0)-2-2-2-2-2-2---|


   E  E E E +E  E E E   +E  E E E S S S S E E
|---------------------|---------------------3-|
|---------------------|-------------------5---|
|---------2-(2)-----2-|-(2)-------4-5-4-2-----|
|---------------4-4---|-----4-4-4-------------|
|--4--3-2-------------|-----------------------|
|---------------------|-----------------------|
|
| +E  E E E  E  E E E   +E  E E E E   E   E E
|---------------------|-----------------------|
|---------------------|-----------------------|
|---------------------|-----------------------|
|-(2)---------------4-|-(4)-4-4-4-4---4---4---|
|-(0)-4-4-4--4--4-4-2-|-(2)-2-2-2-2---2---2-2-|
|-----2-2-2--2--2-2---|---------------------0-|


  +E  E E E S S S S E  E    +E   E  +E   E  S  S  S  S  S  S  S  S
|-(3)-2-2---7-8-7-5---14-|-(14)-14-(14)-15-14-15-14-12-11-12-14-15-|
|---------5---------7----|-----------------------------------------|
|------------------------|-----------------------------------------|
|------------------------|-----------------------------------------|
|------------------------|-----------------------------------------|
|------------------------|-----------------------------------------|
|
| +E  E E E E   E   E  E    +E   E   E   E  E     E     E     E
|------------------------|-----------------------------------------|
|------------------------|-----------------------------------------|
|------------------------|-----------------------------------------|
|------------------------|------------------------------------2----|
|-(2)-2-2-2-2---2---2--2-|--(2)--4---4---4--4-----4-----4-----0----|
|-(0)-0-0-0-0---0---0--0-|--(0)--2---2---2--2-----2-----2----------|


   S   S  E  S  S  S  S  Q    Q
|-18------------------------------|
|-----20-19-------19-20-19---19---|
|-----------20-21-----------------|
|---------------------------------|
|---------------------------------|
|---------------------------------|
|
| +E      E  E     E     E E  E E
|---------------------------------|
|---------------------------------|
|---------------------------------|
|-(2)---------------------------4-|
|-(0)-----4--4-----4-----4-4--4-2-|
|---------2--2-----2-----2-2--2---|


   S   S S  S  S  S S  S  S  S S  S  S  S S  S
|-18--18------17-------------------------------|
|----------19----19------19--------------------|
|---------------------20----20------20---------|
|--------------------------------22----22------|
|-------------------------------------------24-|
|----------------------------------------------|
|
| +E     E     E    E     E    E     E    E
|----------------------------------------------|
|----------------------------------------------|
|----------------------------------------------|
|-(4)----4-----4----4-----4----4-----4---------|
|-(2)----2-----2----2-----2----2-----2----2----|
|-----------------------------------------0----|


   S   S S  S  S  S S  S  Q    Q     E  E  E  E  E  E  E  E
|---------------------------------|--------------------------|
|---------------------------------|----------------------22--|
|-----------------------------21--|-21-21-21-21-21-21-21-----|
|-22----------19------------------|--------------------------|
|-----24---21----21---------------|--------------------------|
|---------------------23-20-------|--------------------------|
|
| +E     E     E    E     E E  Q     E  E  E  E  E  E  E  E
|---------------------------------|--------------------------|
|---------------------------------|--------------------------|
|---------------------------------|--------------------------|
|---------------------------------|-----------------------2--|
|-(2)----2-----2----2-----2-2--2--|--4--4--4--4--4--4--4--0--|
|-(0)----0-----0----0-----0-0--0--|--2--2--2--2--2--2--2-----|


   +E   E  E.    S  E.    S  E.    S    E.    S  E.    S  S  S  S  S  S  S  S  S
|------------------------------------|-------------------------------------------|
|-(22)-20-20----20-20----20-20----20-|-20----20-20----20-22-22-22-22-24-24-24-24-|
|------------------------------------|-------------------------------------------|
|------------------------------------|-------------------------------------------|
|------------------------------------|-------------------------------------------|
|------------------------------------|-------------------------------------------|
|
|  +E   E  E  E     E  E     E  E      +E  E     E  E     E     E     E     E
|------------------------------------|-------------------------------------------|
|------------------------------------|-------------------------------------------|
|------------------------------------|--------------------------------------2----|
|--(2)--2--2--2-----2--2-----2--5----|-(5)-2-----2--2-----2-----2-----2-----0----|
|--(0)--0--0--0-----0--0-----0--3----|-(3)-0-----0--0-----0-----0-----0----------|
|------------------------------------|-------------------------------------------|


   S   S  S  S  S  S  S  S  S  S  S  S  S  S  S  S
|-20--20-20-20-19-19-19-19-17-17-17-17-19-19-19-19--|
|---------------------------------------------------|
|---------------------------------------------------|
|---------------------------------------------------|
|---------------------------------------------------|
|---------------------------------------------------|
|
| +E      E     E     E     E     E     E     E
|---------------------------------------------------|
|---------------------------------------------------|
|-(2)-----2-----2-----2-----2-----2-----2-----------|
|-(0)-----0-----0-----0-----0-----0-----0-----------|
|---------------------------------------------5-----|
|---------------------------------------------3-----|


   S   S  S  S  S  S  S  S  S  S  S  S  S  S  E
|-20--19-17-15-19-17-15-13-17-15-13-12-10-12----|
|--------------------------------------------13-|
|-----------------------------------------------|
|-----------------------------------------------|
|-----------------------------------------------|
|-----------------------------------------------|
|
| +E      E     E     E     E     E     E     E
|-----------------------------------------------|
|-----------------------------------------------|
|-----------------------------------------------|
|---------------------------------------------2-|
|-(5)-----5-----5-----5-----5-----5-----5-----0-|
|-(3)-----3-----3-----3-----3-----3-----3-------|


   +E   E  E  E  Q    E E   +E  E  E E  Q    E  E
|---------------10------8-|-(8)-8----8-15---------|
|-(13)-13------------10---|-------10--------13-15-|
|---------14-12-----------|------------12---------|
|-------------------------|-----------------------|
|-------------------------|-----------------------|
|-------------------------|-----------------------|
|
|  +E   E  E  E  E E  E E   +E  E  E E  E E  E  E
|-------------------------|-----------------------|
|-------------------------|-----------------------|
|-------------------------|---------------------2-|
|--(2)--2--2--2--2-2--2-5-|-(5)-2--2-2--2-2--2--0-|
|--(0)--0--0--0--0-0--0-3-|-(3)-0--0-0--0-0--0----|
|-------------------------|-----------------------|


   +E   E  E  E  E  E  E  E    +E   E E  E  +E   E  E  E
|------------------------12-|-(12)-10-8-17-(17)-15----20-|
|-(15)-15-14-13-------------|----------------------17----|
|---------------14-13-12----|----------------------------|
|---------------------------|----------------------------|
|---------------------------|----------------------------|
|---------------------------|----------------------------|
|
| Gtr II
|  +E   E  E  E  E  E  E  E    +E   E E  E   E   E  E  E
|---------------------------|----------------------------|
|---------------------------|----------------------------|
|--(2)--2--2--2--2--2--2----|----------------------------|
|--(0)--0--0--0--0--0--0----|----------------------------|
|---------------------------|-------0-2--3---5---7--8-10-|
|-------------------------3-|--(3)-----------------------|
|
| Gtr III
|  +E   E  E  E  E  E  E  E    +E   E E  E   E   E  E  E
|---------------------------|----------------------------|
|---------------------------|----------------------------|
|--(2)--2--2--2--2--2--2----|----------------------------|
|--(0)--0--0--0--0--0--0----|----------------------------|
|-------------------------2-|--(2)--3-5--7---8--10-12-14-|
|---------------------------|----------------------------|


   +E   E  E  E  S  S  E  S  S  E
|-(20)-20-19-20-22-20-19-22-20-19-|
|---------------------------------|
|---------------------------------|
|---------------------------------|
|---------------------------------|
|---------------------------------|
|
|   E   E  E  E  E     E  E     E
|---------------------------------|
|---------------------------------|
|---------------------------------|
|---------------------------------|
|--12--14-15-17-19----20-22----24-|
|---------------------------------|
|
|   E   E  E  E  E     E  E     E
|---------------------------------|
|---------------------------------|
|---------------------------------|
|------------------------21----22-|
|--15--17-19-20-22----24----------|
|---------------------------------|


   S   S S  S  S  S S  S  S  S S  S  S  S S  S
|----------------------------------------------|
|----------------------------------------------|
|-17----------17---------17---------17---------|
|-----17---------17---------17---------17------|
|----------19---------19---------19---------19-|
|----------------------------------------------|
|
|  H.                                Q
|------------------------------------1---------|
|----------------------------------------------|
|----------------------------------------------|
|----------------------------------------------|
|----------------------------------------------|
|-24-------------------------------------------|
|
|  H.                                Q
|----------------------------------------------|
|----------------------------------------------|
|----------------------------------------------|
|----------------------------------------------|
|----------------------------------------------|
|-20--------------------------------22---------|


   S   S S  S  S  S S  S  S  S S  S  S  S S  S
|----------------------------------------------|
|----------------------------------------------|
|----------------------------------------------|
|-21----------21---------21---------21---------|
|-----22---------22---------22---------22------|
|----------22---------22---------22---------22-|
|
|  H.                                Q
|----------------------------------------------|
|--3---------------------------------5---------|
|----------------------------------------------|
|----------------------------------------------|
|----------------------------------------------|
|----------------------------------------------|
|
|  H.                                Q
|----------------------------------------------|
|----------------------------------------------|
|----------------------------------------------|
|----------------------------------------------|
|----------------------------------------------|
|-19--------------------------------20---------|


   S   S S  S  S  S S  S  S  S S  S  S  S S  S
|----------------------------------------------|
|----------------------------------------------|
|----------------------------------------------|
|-20----------20---------20---------20---------|
|-----20---------20---------20---------20------|
|----------22---------22---------22---------22-|
|
|  H.                                Q
|----------------------------------------------|
|--3---------------------------------5---------|
|----------------------------------------------|
|----------------------------------------------|
|----------------------------------------------|
|----------------------------------------------|
|
|  H.                                Q
|----------------------------------------------|
|----------------------------------------------|
|----------------------------------------------|
|----------------------------------------------|
|----------------------------------------------|
|-18--------------------------------20---------|


   S  S S S S S S S S S S S  S S S S
|-----1-----5-------5--------7-------|
|---------1---6-------6--------8-----|
|-----------------5-------5--------7-|
|------------------------------------|
|-24---------------------------------|
|------------------------------------|
|
|  H.                        Q
|------------------------------------|
|----------------------------3-------|
|--5---------------------------------|
|------------------------------------|
|------------------------------------|
|------------------------------------|
|
|  H.                        Q
|------------------------------------|
|------------------------------------|
|------------------------------------|
|------------------------------------|
|------------------------------------|
|-17------------------------19-------|


   S  S S S S S S S S S S S  S S S S    S  S S S S S S S S S S S  S S S S
|--8--------8-------8--------8-------|--7--------7-------7--------7-------|
|-----8-------8-------8--------8-----|-----8-------8-------8--------8-----|
|---------9-------9-------9--------9-|---------7-------7-------7--------7-|
|------------------------------------|------------------------------------|
|------------------------------------|------------------------------------|
|------------------------------------|------------------------------------|
|
|  H.                        Q          H.                        Q
|------------------------------------|------------------------------------|
|--5-------------------------6-------|----------------------------5-------|
|------------------------------------|--7---------------------------------|
|------------------------------------|------------------------------------|
|------------------------------------|------------------------------------|
|------------------------------------|------------------------------------|
|
|  H.                        Q          H.                        Q
|------------------------------------|------------------------------------|
|------------------------------------|------------------------------------|
|------------------------------------|------------------------------------|
|------------------------------------|------------------------------------|
|------------------------------------|------------------------------------|
|-20------------------------17-------|-19------------------------20-------|


   S  S S S S S S S S S S S  S S S S    S  S S S S S S S S S S S  S S S S
|--6--------6-------6--------6-------|--5--------5-------5--------7-------|
|-----6-------6-------6--------6-----|-----6-------6-------6--------8-----|
|---------7-------7-------7--------7-|---------5-------5-------5--------7-|
|------------------------------------|------------------------------------|
|------------------------------------|------------------------------------|
|------------------------------------|------------------------------------|
|
|  H.                        Q          H.                        Q
|------------------------------------|------------------------------------|
|--3-------------------------5-------|----------------------------3-------|
|------------------------------------|--5---------------------------------|
|------------------------------------|------------------------------------|
|------------------------------------|------------------------------------|
|------------------------------------|------------------------------------|
|
|  H.                        Q          H.                        Q
|------------------------------------|------------------------------------|
|------------------------------------|------------------------------------|
|------------------------------------|------------------------------------|
|------------------------------------|------------------------------------|
|------------------------------------|------------------------------------|
|-18------------------------20-------|-17------------------------19-------|


  S S S S  S  S  S S  S  S S S  S  S S S
|-8--------8----------8---------8--------|
|---8---------8----------8---------8-----|
|-------9----------9---------9---------9-|
|----------------------------------------|
|----------------------------------------|
|----------------------------------------|
|
| Q       +S  E.     +E    S S +Q
|----------------------------------------|
|----------------------------------------|
|----------------------------------------|
|-2-------(2)-0------(0)-----------------|
|----------------------------3-(3)-------|
|----------------------------------------|
|
| Q       +S  E.     +E    S S +Q
|----------------------------------------|
|----------------------------------------|
|----------------------------------------|
|----------------------------------------|
|-3-------(3)-2------(2)-----0-(0)-------|
|----------------------------------------|


  S S S S  S  S  S S  S  S S S  S  S S S
|-7--------7----------7---------7--------|
|---8---------8----------8---------8-----|
|-------7----------7---------7---------7-|
|----------------------------------------|
|----------------------------------------|
|----------------------------------------|
|
| Q       +S  E.     +E    S S +Q
|----------------------------------------|
|----------------------------------------|
|----------------------------------------|
|----------------------------------------|
|-2-------(2)-2------(2)-----3-(3)-------|
|----------------------------------------|
|
| Q       +S  E.     +E    S S +Q
|----------------------------------------|
|----------------------------------------|
|----------------------------------------|
|----------------------------------------|
|----------------------------0-(0)-------|
|-3-------(3)-3------(3)-----------------|


  S S S S  S  S  S S  S  S S S  S  S S S   S S S S S S S S S S S S S S S S
|-6--------6----------6---------6--------|-5-------5-------5-------7-------|
|---6---------6----------6---------6-----|---6-------6-------6-------8-----|
|-------7----------7---------7---------7-|-------5-------5-------5-------7-|
|----------------------------------------|---------------------------------|
|----------------------------------------|---------------------------------|
|----------------------------------------|---------------------------------|
|
| Q       +S  E.     +E    S S +Q          W
|----------------------------------------|---------------------------------|
|----------------------------------------|---------------------------------|
|----------------------------------------|---------------------------------|
|----------------------------------------|---------------------------------|
|-5-------(5)-3------(3)-----1-(1)-------|-0-------------------------------|
|----------------------------------------|---------------------------------|
|
| Q       +S  E.     +E    S S +Q          W
|----------------------------------------|---------------------------------|
|----------------------------------------|---------------------------------|
|----------------------------------------|---------------------------------|
|----------------------------------------|---------------------------------|
|-1-------(1)-0------(0)-----------------|---------------------------------|
|----------------------------3-(3)-------|-1-------------------------------|


  S S S S  S  S  S S  S  S S S  S  S S S   S S S S S S S S S S S S S S S S
|-8--------8----------8---------8--------|-7-------7-------7-------7-------|
|---8---------8----------8---------8-----|---8-------8-------8-------8-----|
|-------9----------9---------9---------9-|-------7-------7-------7-------7-|
|----------------------------------------|---------------------------------|
|----------------------------------------|---------------------------------|
|----------------------------------------|---------------------------------|
|
| Q       +S  E.     +E    S S +Q          W
|----------------------------------------|---------------------------------|
|----------------------------------------|---------------------------------|
|----------------------------------------|---------------------------------|
|-2-------(2)-0------(0)-----------------|---------------------------------|
|----------------------------3-(3)-------|-2-------------------------------|
|----------------------------------------|---------------------------------|
|
| Q       +S  E.     +E    S S +Q          W
|----------------------------------------|---------------------------------|
|----------------------------------------|---------------------------------|
|----------------------------------------|---------------------------------|
|----------------------------------------|---------------------------------|
|-3-------(3)-2------(2)-----0-(0)-------|---------------------------------|
|----------------------------------------|-3-------------------------------|


  S S S S S S S S S S S S S S S S   S  S S  S S  S S  S S  S S S E E
|-6-------6-------6-------6-------|-8---------8---------8--------8----|
|---8-------8-------6-------6-----|---10--------10---------8-------8--|
|-------8-------8-------7-------7-|--------10--------10--------9---0--|
|---------------------------------|-----------------------------------|
|---------------------------------|-----------------------------------|
|---------------------------------|-----------------------------------|
|
| H               H                 H                   Q.         E
|---------------------------------|--------------------------------7--|
|---------------------------------|-----------------------------------|
|-0-------------------------------|-2-------------------0-------------|
|-----------------3---------------|-----------------------------------|
|---------------------------------|-----------------------------------|
|---------------------------------|-----------------------------------|
|
| H               H                 H                   Q.         E
|---------------------------------|--------------------------------3--|
|---------------------------------|-----------------------------------|
|---------------------------------|-----------------------------------|
|-1---------------0---------------|-3-------------------2-------------|
|---------------------------------|-----------------------------------|
|---------------------------------|-----------------------------------|


  +W                  +W
|-------------------|-------------------|
|-(8)---------------|-(8)---------------|
|-(0)---------------|-(0)---------------|
|-------------------|-------------------|
|-------------------|-------------------|
|-------------------|-------------------|
|
| +E  E E E E E E E    E  E E E E E E E
|-(7)-5-3-1-0-------|-------------------|
|-------------3-1-0-|-------------------|
|-------------------|--2--0-------------|
|-------------------|-------3-2-0-------|
|-------------------|-------------3-2-0-|
|-------------------|-------------------|
|
| +E  E E E E E E E    E  E E E E E E E
|-(3)-1-0-----------|-------------------|
|---------3-1-0-----|-------------------|
|---------------2-0-|-------------------|
|-------------------|--3--2-0---------2-|
|-------------------|---------3-2-0---0-|
|-------------------|---------------3---|


   W                     W
|---------------------|---------------------|
|---------------------|---------------------|
|---------------------|---------------------|
|---------------------|---------------------|
|---------------------|---------------------|
|---------------------|---------------------|
|
| +E  E E E E E +E  E   +E  E E E E E +E  E
|---------------------|---------------------|
|---------------------|---------------------|
|-----------2-3-(3)---|-------3---2---------|
|-------5---0-1-(1)-2-|-(2)---1---0-5-(5)-2-|
|-(0)-0-3-0---------0-|-(0)-0---0---3-(3)-0-|
|---------------------|---------------------|
|
| +E  E Q   E E  E  E    H        E E  E  E
|---------------------|---------------------|
|---------------------|---------------------|
|---------------------|---------------------|
|-(2)-2-------2--2--2-|-------------2-----2-|
|-(0)-0-------0--0--0-|-------------0-----0-|
|---------------------|---------------------|


  Gtr II
  +E  E E E E E +E  E   +E  E E E E E +E  E
|---------------------|---------------------|
|---------------------|---------------------|
|-----------2-3-(3)---|-------3---2---------|
|-(2)---5---0-1-(1)-2-|-(2)---1---0-5-(5)-2-|
|-(0)-0-3-0---------0-|-(0)-0---0---3-(3)-0-|
|---------------------|---------------------|
|
| Gtr III
|  H        E E  E  E    H        Q    E  E
|---------------------|---------------------|
|---------------------|---------------------|
|---------------------|---------------------|
|-------------2--2--2-|-------------------2-|
|-------------0--0--0-|-------------------0-|
|---------------------|---------------------|


  +E  E E E E E +E  E   +E  E E E E E +E  E
|---------------------|---------------------|
|---------------------|---------------------|
|---------------------|---------------------|
|-(2)---5---5-8-(8)---|-------8---7-5-(5)---|
|-(0)-0-3-0-5-6-(6)-7-|-(7)---6---5-------7-|
|-------------------5-|-(5)-5---5---8-(8)-5-|
|
|  E  E Q   E E  E  E    H        E E  E  E
|---------------------|---------------------|
|---------------------|---------------------|
|---------------------|---------------------|
|--2----------2--2--2-|-------------2-----2-|
|--0----------0--0--0-|-------------0-----0-|
|---------------------|---------------------|


  Gtr I
   W                  H    Q  E  E
|-------------------|-----------15-|
|-------------------|-----------15-|
|-------------------|--------------|
|-------------------|--------------|
|-------------------|--------------|
|-------------------|--------------|
|
| Gtr II
| +E  E E E E E E E   H    Q  E  E
|-------------------|--------------|
|-------------------|--------------|
|-------------------|--------------|
|-------5---7-------|--------------|
|-(7)-------5-7-7-7-|------------2-|
|-(5)-5-8-5---5-5-5-|------------0-|
|
| Gtr III
|  H        E E E E   H    Q  E  E
|-------------------|--------------|
|-------------------|--------------|
|-------------------|--------------|
|-------------2-2-2-|--------------|
|-------------0-0-0-|------------2-|
|-------------------|------------0-|


   +W                     W
|-(15)-----------------|---------------------|
|-(15)-----------------|---------------------|
|----------------------|---------------------|
|----------------------|---------------------|
|----------------------|---------------------|
|----------------------|---------------------|
|
|  +E  E E E E E +E  E   +E  E E E E E +E  E
|----------------------|---------------------|
|----------------------|---------------------|
|----------------------|---------------------|
|------------2-3-(3)---|-------3---2---------|
|--(2)---5---0-1-(1)-2-|-(2)---1---0-5-(5)-2-|
|--(0)-0-3-0---------0-|-(0)-0---0---3-(3)-0-|
|
|  +E  E E E E E +E  E   +E  E E E E E +E  E
|----------------------|---------------------|
|----------------------|---------------------|
|----------------------|---------------------|
|------------2-3-(3)---|-------3---2---------|
|--(2)---5---0-1-(1)-2-|-(2)---1---0-5-(5)-2-|
|--(0)-0-3-0---------0-|-(0)-0---0---3-(3)-0-|


   W                     H        Q    E   E
|---------------------|----------------------|
|---------------------|-------------------17-|
|---------------------|----------------------|
|---------------------|----------------------|
|---------------------|----------------------|
|---------------------|----------------------|
|
| Gtrs II, III
| +E  E E E E E +E  E   +E  E E E E E +E   E
|---------------------|----------------------|
|---------------------|----------------------|
|---------------------|----------------------|
|-----------2-3-(3)---|-------3---2----------|
|-(2)---5---0-1-(1)-2-|-(2)---1---0-5-(5)--2-|
|-(0)-0-3-0---------0-|-(0)-0---0---3-(3)--0-|


   +Q     Q    +E   E  +E   E    +Q     Q    +E   E  +E   E
|-----------------------------|-----------------------------|
|-(17)-------------17-(17)----|--------17---(17)---------17-|
|--------16---(16)---------16-|-(16)-------------16-(16)----|
|-----------------------------|-----------------------------|
|-----------------------------|-----------------------------|
|-----------------------------|-----------------------------|
|
|  +E  E  E E   E   E  +E   E    +E  E  E E   E   E  +E   E
|-----------------------------|-----------------------------|
|-----------------------------|-----------------------------|
|-----------------------------|-----------------------------|
|---------------2---3--(3)----|---------3-----2-------------|
|--(2)----5-----0---1--(1)--2-|--(2)----1-----0---5--(5)--2-|
|--(0)-0--3-0---------------0-|--(0)-0----0-------3--(3)--0-|


   +Q     Q    +E   E  +E   E    +Q     Q    +E   E  +Q
|-----------------------------|----------------------------|
|-(17)-------------16-(16)----|--------15---(15)-----------|
|--------15---(15)---------14-|-(14)-------------14-(14)---|
|-----------------------------|----------------------------|
|-----------------------------|----------------------------|
|-----------------------------|----------------------------|
|
| Gtr II
|  +E  E  E E   E   E  +E   E    +E  E  E E   E   E  +E  E
|-----------------------------|----------------------------|
|-----------------------------|----------------------------|
|-----------------------------|----------------------------|
|---------------2---3--(3)----|---------3-----2------------|
|--(2)----5-----0---1--(1)--2-|--(2)----1-----0---5--(5)-2-|
|--(0)-0--3-0---------------0-|--(0)-0----0-------3--(3)-0-|
|
| Gtr III
|  +E  E  E E   E   E  +E   E    +E  E  E E   Q.         E
|-----------------------------|--------------------------3-|
|-----------------------------|--------------------------3-|
|-----------------------------|---------------2------------|
|---------------2---3--(3)----|---------3-----2------------|
|--(2)----5-----0---1--(1)--2-|--(2)----1------------------|
|--(0)-0--3-0---------------0-|--(0)-0----0----------------|


   W                   W
|-------------------|-------------------|
|-------------------|-------------------|
|-------------------|-------------------|
|-------------------|-------------------|
|-------------------|-------------------|
|-------------------|-------------------|
|
| +Q    E E E E E E   +Q    E E E E E E
|-------------------|-------------------|
|-------------------|-------------------|
|-------------------|-------------------|
|-------------------|-------------------|
|-(2)-------------2-|-(2)-------------2-|
|-(0)---0-0-0-0-0-0-|-(0)---0-0-0-0-0-0-|
|
| +E  E E E E E E E   +E  E E E E E E E
|-(3)-3-----------3-|-(3)-3-------------|
|-(3)-3-----------3-|-(3)-3-------------|
|-------------------|-------------------|
|-------------------|-------------------|
|-------------------|-----------------2-|
|-------0-0-0-0-0---|-------0-0-0-0-0-0-|


  Gtr II
  +E  E E E E E +E  E   +E  E E E E  E +E  E
|---------------------|----------------------|
|---------------------|----------------------|
|---------------------|----------------------|
|-----------2-3-(3)---|-------3---2----------|
|-(2)---5---0-1-(1)-2-|-(2)---1---0--5-(5)-2-|
|-(0)-0-3-0---------0-|-(0)-0---0----3-(3)-0-|
|
| Gtr III
| +E  E E E E E +E  E   +E  E E E Q.       E
|---------------------|--------------------3-|
|---------------------|--------------------3-|
|---------------------|-----------2----------|
|-----------2-3-(3)---|-------3---2----------|
|-(2)---5---0-1-(1)-2-|-(2)---1--------------|
|-(0)-0-3-0---------0-|-(0)-0---0------------|


  +E  E E E E E E E   +E  E E E E E E E
|-------------------|-------------------|
|-------------------|-------------------|
|-------------------|-------------------|
|-------------------|-------------------|
|-(2)-------------2-|-(2)-------------2-|
|-(0)-0-0-0-0-0-0-0-|-(0)-0-0-0-0-0-0-0-|
|
| +E  E E E E E E E   +E  E E E E E E E
|-(3)-3-----------3-|-(3)-3-------------|
|-(3)-3-----------3-|-(3)-3-------------|
|-------------------|-------------------|
|-------------------|-------------------|
|-------------------|-----------------2-|
|-------0-0-0-0-0---|-------0-0-0-0-0-0-|


  Gtrs II, III
  +E  E E E E E +E  E   +E  E E E E E E E
|---------------------|-------------------|
|---------------------|-------------------|
|---------------------|-------------------|
|-----------2-3-(3)---|-------3---2-------|
|-(2)---5---0-1-(1)-2-|-(2)---1---0-----7-|
|-(0)-0-3-0---------0-|-(0)-0---0---3-4-5-|


  +E  E E E E E +E  E   +E  E E E E E +E  E
|---------------------|---------------------|
|---------------------|---------------------|
|---------------------|-------------------4-|
|-------5---7-8-(8)---|-------8---7-5-(5)-4-|
|-(7)-------5-6-(6)-7-|-(7)---6---5---------|
|-(5)-5-8-5---------5-|-(5)-5---5---8-(8)---|


  Gtr II
  +E    E Q  E E +E  E   +E  E E E E E E E
|----------------------|-------------------|
|---------3--5-3-(3)---|-------------------|
|-(4)-----2--4-2-(2)-2-|-(2)---------------|
|-(4)----------------0-|-(0)-0-0-----------|
|-------2--------------|---------1-1-0---2-|
|----------------------|---------------3-0-|
|
| Gtr III
| +S  S E Q  E E +E  E   +E  E E E E E E E
|----------------------|-------------------|
|---------3--5-3-(3)---|-------------------|
|-(4)-----2--4-2-(2)-2-|-(2)---------------|
|-(4)----------------0-|-(0)-0-0-----------|
|-------2--------------|---------1-1-0---2-|
|----------------------|---------------3-0-|


  +E  E E E E E +E  E   +E  E E E E E +E  E
|---------------------|----------------------|
|---------------------|----------------------|
|---------------------|----------------------|
|-----------2-3-(3)---|-------3---2----------|
|-(2)---5---0-1-(1)-2-|-(2)---1---0-5-(5)-2--|
|-(0)-0-3-0---------0-|-(0)-0---0---3-(3)-0--|
|
| +E  E E E E E +E  E   +E  E E E E E +E  E
|---------------------|----------------------|
|---------------------|----------------------|
|---------------------|----------------------|
|-----------2-3-(3)---|-------3---2----------|
|-(2)---5---0-1-(1)-2-|-(2)---1---0-5-(5)-2--|
|-(0)-0-3-0---------0-|-(0)-0---0---3-(3)-0--|


  Gtrs II, III
  +E  E E E E E +E  E   +E  E E E E E E E   +H     +Q.   E   +H     E E E E
|---------------------|-------------------|----------------|----------------|
|---------------------|-------------------|----------------|----------------|
|---------------------|-----3-2-0---------|----------------|----------------|
|-----------2-3-(3)-2-|-(2)-------2---0-5-|-(5)----(5)-----|--------2-1-0-5-|
|-(2)---5---0-1-(1)---|-------------2---3-|-(3)----(3)---5-|-(5)----------3-|
|-(0)-0-3-0-----------|-------------------|--------------3-|-(3)------------|


  Gtr II
  +H     +Q   +S  S E   +H     E E E E
|---------------------|----------------|
|---------------------|----------------|
|---------------------|----------------|
|-(5)----(5)--(5)-----|--------2-1-0---|
|-(3)----(3)--(3)---5-|-(5)----------0-|
|-------------------3-|-(3)------------|
|
| Gtr III
| +H     +Q.        E   +H     E E E E
|---------------------|----------------|
|---------------------|----------------|
|---------------------|----------------|
|-(5)----(5)----------|--------2-1-0---|
|-(3)----(3)--------5-|-(5)----------0-|
|-------------------3-|-(3)------------|


  +E  E E E E E E E   E E E E E E +E  E
|-------------------|--------------------|
|-------0---1---3---|-5---3---1-3-(3)----|
|-------------------|--------------------|
|-------------------|--------------------|
|-(0)-0---0---0---0-|-------0---------2--|
|-------------------|---5----------------|
|
| +E  E E E E E E E   E E E E E E +E  E
|-------------------|--------------------|
|-------------------|--------------------|
|-------0---2---4---|-5---4--------------|
|-------------------|---------7-9-(9)----|
|-(0)-0---0---0-----|--------------------|
|-----------------5-|---5---5---------7--|


  +E  E Q  E E +E  E   +E  E Q  E E E  E    +H      +Q.   E   +H     E E E E
|--------------------|-------------------|------------------|----------------|
|--------------------|-------------------|------------------|----------------|
|--------------------|-------------------|------------------|----------------|
|-------4--3-4-(4)---|-------4----0----5-|--(5)-----(5)-----|--------2-1-0-5-|
|-(2)-2------------2-|-(2)-2----2---2--3-|--(3)-----(3)---5-|-(5)----------3-|
|--------------------|-------------------|----------------3-|-(3)------------|
|
| +E  E Q  E E +E  E   +E  E Q  E E E  E    +H      +Q.   E   +H     E E E E
|--------------------|-------------------|------------------|----------------|
|--------------------|-------------------|------------------|----------------|
|--------------------|-------------------|------------------|----------------|
|--------------------|-------------------|------------------|--------2-1-0-5-|
|-------9--8-9-(9)---|------------5---10-|-(10)----(10)---5-|-(5)----------3-|
|-(7)-7------------7-|-(7)-7-9--7---7--8-|--(8)-----(8)---3-|-(3)------------|


  +H     +Q.   E   +H     E E E E   +W           H    +S  S E +Q
|----------------|----------------|------------|--------------------|
|----------------|----------------|------------|--------------------|
|----------------|----------------|------------|-2----(2)-----------|
|-(5)----(5)-----|--------2-1-0-5-|-(5)--------|-0----(0)---1-(1)---|
|-(3)----(3)---5-|-(5)----------3-|-(3)--------|--------------------|
|--------------3-|-(3)------------|------------|--------------------|
|
| +H     +Q.   E   +H     E E E E   +W           H    +E    E +Q
|----------------|----------------|------------|--------------------|
|----------------|----------------|------------|--------------------|
|----------------|----------------|------------|-2----(2)-----------|
|-(5)----(5)-----|--------2-1-0-5-|-(5)--------|-0----(0)---1-(1)---|
|-(3)----(3)---5-|-(5)----------3-|-(3)--------|--------------------|
|--------------3-|-(3)------------|------------|--------------------|


  Gtrs II, III
  E E E E E E E E   E E E E E E E E   +Q   Q  E E +E  E   +Q   Q  E E +E  E
|-----------------|-----------------|-------------------|-------------------|
|-3-----3-----3---|---3-------------|-------------------|-----------------3-|
|-4-----4-----4---|---4-----------0-|-(0)-------------4-|-(4)--2--0-2-(2)-2-|
|-2-----2-----2---|---2-----------2-|-(2)--4--2-4-(4)-5-|-(5)--4--2-4-(4)-0-|
|-----------------|-------------0---|------5--3-5-(5)---|-------------------|
|---0-0---0-0---0-|-0---0-0-3-0-----|-------------------|-------------------|


  +H     +Q.   E   +E  E E E E E E E   +Q   Q  E E +E  E   +Q   Q  E E +E  E
|----------------|-------------------|-------------------|-------------------|
|-(3)----(3)---5-|-(5)---------------|-------------------|-----------------3-|
|-(2)----(2)---4-|-(4)-------------0-|-(0)-------------4-|-(4)--2--0-2-(2)-2-|
|-(0)----(0)---2-|-(2)-------0---0-2-|-(2)--4--2-4-(4)-5-|-(5)--4--2-4-(4)-0-|
|----------------|-----0-1-2---2-----|------5--3-5-(5)---|-------------------|
|----------------|-------------------|-------------------|-------------------|


  +Q   Q  E E E E   +H     E E Q    Q  Q  E E +E  E   +Q   Q  E E +E  E
|-----------------|---------------|-----------------|-------------------|
|-(3)--3----------|---------------|-----------------|-----------------3-|
|-(2)--2----------|---------------|-0-------------4-|-(4)--2--0-2-(2)-2-|
|-(0)--0----------|---------------|-2--4--2-4-(4)-5-|-(5)--4--2-4-(4)-0-|
|---------------2-|-(2)-----------|----5--3-5-(5)---|-------------------|
|---------3-2-1-0-|-(0)----0-2-3--|-----------------|-------------------|


  Gtr II
  +H     +Q.   E   +E    E E E E E E E
|----------------|---------------------|
|-(3)----(3)---5-|-(5)-----------------|
|-(2)----(2)---4-|-(4)---------------0-|
|-(0)----(0)---2-|-(2)---------0---0-2-|
|----------------|-------0-1-2---2-----|
|----------------|---------------------|
|
| Gtr III
| +H     +Q.   E   +S  S E E E E E E E
|----------------|---------------------|
|-(3)----(3)---5-|-(5)-----------------|
|-(2)----(2)---4-|-(4)---------------0-|
|-(0)----(0)---2-|-(2)---------0---0-2-|
|----------------|-------0-1-2---2-----|
|----------------|---------------------|


  +Q   Q  E E +E  E   +Q   Q  E E +E  E
|-------------------|--------------------|
|-------------------|-----------------3--|
|-(0)-------------4-|-(4)--2--0-2-(2)-2--|
|-(2)--4--2-4-(4)-5-|-(5)--4--2-4-(4)-0--|
|------5--3-5-(5)---|--------------------|
|-------------------|--------------------|
|
| +Q   Q  E E +E  E
Добавлено: 26.03.2012
Другие материалы по этой песне:

Страница создана 23.03.2012
http://primanota.ru/x-japan/miscast-chords.htm
Привет, Гость.
Предлагаем пройти революционный курс по гитаре.
Подарок от PrimaNota.Ru, забирай!