PrimaNota.ru - самый крупный в мире бесплатный архив песенных текстов, аккордов, табулатур и нот


Wzrd - Perfect Is The Word - таба, видео

Регистрация Запомнить меня
Войти через:  Facebook Google Twitter Vk Yandex Mail.ru

Wzrd - Perfect Is The Word - таба, видео

Печатать
Просмотров: 72
-------------------------------------------------------------------------------
                        Perfect Is The Word - WZRD
-------------------------------------------------------------------------------
Tabbed by: Dalton P.
E-mail:

Tuning: Standard (EADGBe)
Effects: Crunch or Distortion

Verse: My count may be off, but you get the idea :)
e|---------------------------------------------------------------------------|
B|---------------------------------------------------------------------------|
G|---------------------------------------------------------------------------|
D|---------------------------------------------------------------------------|
A|---9---9---9---9---9\--4---4---4---4\--2---2---2--/3---3---3---3/----------|
E|---------------------------------------------------------------------------|
                         ^               ^           ^
D|---------------------------------------------------------------------------|
A|---------------------------------------------------------------------------|
E|----------------------(9)-------------(7)---------(8)----------------------|
    (You can play these notes in place of the ones above.)

"Waitinnnnnnnng"
e|---------------------------------------------------------------------------|
B|---------------------------------------------------------------------------|
G|---------------------------------------------------------------------------|
D|---------------------------------------------------------------------------|
A|---9---9---9---9---9---9---9---9---9---9---9---9---9---9---9---9-----------|
E|---------------------------------------------------------------------------|

"I won't run away"
e|---------------------------------------------------------------------------|
B|---------------------------------------------------------------------------|
G|---------------------------------------------------------------------------|
D|---------------------------------------------------------------------------|
A|-12-12-12-11-9---------9-9-9-9-12-12-12-11-9-------------------------------|
E|---------------------------------------------------------------------------|


************************************

| /   slide up
| \   slide down
| h   hammer-on
| p   pull-off
| ~   vibrato
| +   harmonic
| x   Mute note
| b   Bend
| pb  Pre-bend
| br  Bend release
| pbr Pre-bend release
| brb Bend release bend

************************************
Добавлено: 05.06.2016
Другие материалы по этой песне:
  • Аккорды и текст

Страница создана 05.06.2016
http://primanota.ru/wzrd/perfect-is-word-chords.htm
Привет, Гость.
Предлагаем пройти революционный курс по гитаре.
Подарок от PrimaNota.Ru, забирай!