PrimaNota.ru - самый крупный в мире бесплатный архив песенных текстов, аккордов, табулатур и нот


Wzrd - Love Hard - таба, видео

Регистрация Запомнить меня
Войти через:  Facebook Google Twitter Vk Yandex Mail.ru

Wzrd - Love Hard - таба, видео

Печатать
Просмотров: 55
-------------------------------------------------------------------------------
                                                        Love Hard - WZRD
-------------------------------------------------------------------------------
Tabbed by:Dat0Weird0Guy
E-mail:honoroll23@yahoo.com

Tuning:drop D

Intro:
e|----------------------|-------------------------------------------------|
B|----------------------|-------------------------------------------------|
G|----------------------|-------------------------------------------------|
D|-------------------x6-|-------------------------------------------------|
A|----------------------|-1-1-1-3-3-3-5~----------------------------------|
D|--8-8-8-8-8-1-1-1-----|-------------------------------------------------|

Verse 1
e|----------------------------------------------------------------------|
B|----------------------------------------------------------------------|
G|----------------------------------------------------------------------|
D|----------------------------------------------------------------------| x4
A|-1-1-1-9-9-9-8-8-8----------------------------------------------------|
D|--------------------6-6-6-6-6-6-6-6-6-6-6-4-4-4-4-4-4-4-4-4-4---------|

Chorus

"ohh if you love soft"
e|--------------------------------------------------------------------|
B|--------------------------------------------------------------------|
G|--------------------------------------------------------------------|
D|--------------------------------------------------------------------|
A|-1-1-1-9-9-9-8-8-8--------------------------------------------------|
D|-------------------6-6-6-6-6-6-6-6-10-10-8-8-4-4-4-4-4-4-4-4-4-4-4--|

e|--------------------------------------------------------------------|
B|--------------------------------------------------------------------|
G|--------------------------------------------------------------------|
D|--------------------------------------------------------------------|
A|-1-1-1-9-9-9-8-8-8--------------------------------------------------|
D|-------------------6-6-6-6-6-6-6-6-10-10-8-8-4-4-4-4-4-4-4-3-3-3-3--|

(softly) accompanied by:

e|--------------------------------------------------------------------------|
B|--------------------------------------------------------------------------|
G|-3-3-3-11-11-11-10-10-10--------------------------------------------------|
D|-------------------------6-6-6-6-6-6-6-6-10-10-8-8-4-4-4-4-4-4-4-4-4-4-4--|
A|--------------------------------------------------------------------------|
D|--------------------------------------------------------------------------|

e|--------------------------------------------------------------------------|
B|--------------------------------------------------------------------------|
G|-3-3-3-11-11-11-10-10-10--------------------------------------------------|
D|-------------------------6-6-6-6-6-6-6-6-10-10-8-8-4-4-4-4-4-4-4-3-3-3-3--|
A|--------------------------------------------------------------------------|
D|--------------------------------------------------------------------------|

(softly) accompanied by violins:

e|-----14~--13~------------------------------------------------|
B|-11~---------------------------------------------------------|
G|---------------13~--------11~--10~--8~-----------------------|
D|-------------------------------------------------------------|
A|-------------------------------------------------------------|
D|-------------------------------------------------------------|
"Follow your heart"
e|--------------------------------------------------------------------|
B|--------------------------------------------------------------------|
G|--------------------------------------------------------------------|
D|--------------------------------------------------------------------| x2
A|-1-1-1-9-9-9-8-8-8--------------------------------------------------|
D|-------------------6-6-6-6-6-6-6-6-6-6-6-6-6-6-6-6-6-6-6-6-6-6-6-6--|

accompanied by:

e|--------------------------------------|
B|--------------------------------------|
G|--------------------------------------|
D|-8---6---4---3~-----6---4---3--1~-----| x2
A|--------------------------------------|
D|--------------------------------------|

Verse 2

e|----------------------------------------------------------------------|
B|----------------------------------------------------------------------|
G|----------------------------------------------------------------------|
D|----------------------------------------------------------------------| x4
A|-1-1-1-9-9-9-8-8-8----------------------------------------------------|
D|--------------------6-6-6-6-6-6-6-6-6-6-6-4-4-4-4-4-4-4-4-4-4---------|

accompanied by:

e|-----------------------------|--------------------------------|
B|-6--6--6--6--6--6--6--6------|-6--6--6--6--6--6--6-7-6--------|
G|-----------------------------|--------------------------------|
D|--------------------------x2-|---------------------------x2---|
A|-----------------------------|--------------------------------|
D|-----------------------------|--------------------------------|

Chorus:

Chorus

"ohh if you love soft"
e|--------------------------------------------------------------------|
B|--------------------------------------------------------------------|
G|--------------------------------------------------------------------|
D|--------------------------------------------------------------------|
A|-1-1-1-9-9-9-8-8-8--------------------------------------------------|
D|-------------------6-6-6-6-6-6-6-6-10-10-8-8-4-4-4-4-4-4-4-4-4-4-4--|

e|--------------------------------------------------------------------|
B|--------------------------------------------------------------------|
G|--------------------------------------------------------------------|
D|--------------------------------------------------------------------|
A|-1-1-1-9-9-9-8-8-8--------------------------------------------------|
D|-------------------6-6-6-6-6-6-6-6-10-10-8-8-4-4-4-4-4-4-4-3-3-3-3--|

(softly) accompanied by:

e|--------------------------------------------------------------------------|
B|--------------------------------------------------------------------------|
G|-3-3-3-11-11-11-10-10-10--------------------------------------------------|
D|-------------------------6-6-6-6-6-6-6-6-10-10-8-8-4-4-4-4-4-4-4-4-4-4-4--|
A|--------------------------------------------------------------------------|
D|--------------------------------------------------------------------------|

e|--------------------------------------------------------------------------|
B|--------------------------------------------------------------------------|
G|-3-3-3-11-11-11-10-10-10--------------------------------------------------|
D|-------------------------6-6-6-6-6-6-6-6-10-10-8-8-4-4-4-4-4-4-4-3-3-3-3--|
A|--------------------------------------------------------------------------|
D|--------------------------------------------------------------------------|

(softly) accompanied by violins:

e|-----14~--13~------------------------------------------------|
B|-11~---------------------------------------------------------|
G|---------------13~--------11~--10~--8~-----------------------|
D|-------------------------------------------------------------|
A|-------------------------------------------------------------|
D|-------------------------------------------------------------|
"Follow your heart"
e|--------------------------------------------------------------------|
B|--------------------------------------------------------------------|
G|--------------------------------------------------------------------|
D|--------------------------------------------------------------------| x2
A|-1-1-1-9-9-9-8-8-8--------------------------------------------------|
D|-------------------6-6-6-6-6-6-6-6-6-6-6-6-6-6-6-6-6-6-6-6-6-6-6-6--|

accompanied by:

e|--------------------------------------|
B|--------------------------------------|
G|--------------------------------------|
D|-8---6---4---3~-----6---4---3--1~-----| x2
A|--------------------------------------|
D|--------------------------------------|

Guitar Solo:

"yeah"
e|-----------------------------------------------------------------------|
B|-----------------------------------------------------------------------|
G|-----------------7-8-7-7-8-------------------8-7-7-8-7-7-8-------------|
D|-----------------------------------------------------------------------| x2
A|-6-5-5-6-5-5-6-5-5-6-5-5-6-6-6-6-6-5-5-6-5-5-6-5-5-6-5-5-6-6-6-6-------|
D|-----------------------------------------------------------------------|

Breakdown:

e|--------------11~----8~-----------------------------8~--|
B|-6~----9~-------------------6~----9~--------------------|
G|--------------------------------------------------------|
D|--------------------------------------------------------| x4
A|--------------------------------------------------------|
D|--------------------------------------------------------|

on the fourth time bass comes in and plays:

G|-------------------------------------------------|
D|-------------------------------------------------| 
A|-----------------1~---4-6-------1~-----------1~--|
C|--5-5-5-5h6--1~-----------5-6-------5---6--------|

"love hard"

G|------------------------------------------------------------------|
D|------------------------------------------------------------------| 
A|------------------------------------------------------------------|
C|--10~---10-10-10-10-10~---10-10-10-10-13-13-13-13-5~----5-5-5-5-6~|

G|--------------------------------------------------------------------------|
D|--------------------------------------------------------------------------| 
A|--------------------------------------------------------------------------|
C|--6-6-6-6-10~---10-10-10-10-13---13-13-13-13-13-13-13-13-5---5-5-5-5-6-1--|

G|------------------------------------------------------------------|
D|------------------------------------------------------------------| 
A|------------------------------------------------------------------|
C|--10~---10-10-10-10-10~---10-10-10-10-10-10-10-10-5~----5-5-5-5-6~|

G|---------------------------------------------------------------------|
D|---------------------------------------------------------------------| 
A|---------------------------------------------------------------------|
C|--10~---10-10-10-10-10~---10-10-10-10-10-10-10-10-5~ x-x-x-x-x-x-x-x-|

Final Chorus:

"ohh if you love soft"
e|--------------------------------------------------------------------|
B|--------------------------------------------------------------------|
G|--------------------------------------------------------------------|
D|--------------------------------------------------------------------|
A|-1-1-1-9-9-9-8-8-8--------------------------------------------------|
D|-------------------6-6-6-6-6-6-6-6-10-10-8-8-4-4-4-4-4-4-4-4-4-4-4--|

e|--------------------------------------------------------------------|
B|--------------------------------------------------------------------|
G|--------------------------------------------------------------------|
D|--------------------------------------------------------------------|
A|-1-1-1-9-9-9-8-8-8--------------------------------------------------|
D|-------------------6-6-6-6-6-6-6-6-10-10-8-8-4-4-4-4-4-4-4-3-3-3-3--|

(softly) accompanied by:

e|--------------------------------------------------------------------------|
B|--------------------------------------------------------------------------|
G|-3-3-3-11-11-11-10-10-10--------------------------------------------------|
D|-------------------------6-6-6-6-6-6-6-6-10-10-8-8-4-4-4-4-4-4-4-4-4-4-4--|
A|--------------------------------------------------------------------------|
D|--------------------------------------------------------------------------|

e|--------------------------------------------------------------------------|
B|--------------------------------------------------------------------------|
G|-3-3-3-11-11-11-10-10-10--------------------------------------------------|
D|-------------------------6-6-6-6-6-6-6-6-10-10-8-8-4-4-4-4-4-4-4-3-3-3-3--|
A|--------------------------------------------------------------------------|
D|--------------------------------------------------------------------------|

(softly) accompanied by violins:

e|-----14~--13~------------------------------------------------|
B|-11~---------------------------------------------------------|
G|---------------13~--------11~--10~--8~-----------------------|
D|-------------------------------------------------------------|
A|-------------------------------------------------------------|
D|-------------------------------------------------------------|
"Follow your heart"
e|--------------------------------------------------------------------|
B|--------------------------------------------------------------------|
G|--------------------------------------------------------------------|
D|--------------------------------------------------------------------| x2
A|-1-1-1-9-9-9-8-8-8--------------------------------------------------|
D|-------------------6-6-6-6-6-6-6-6-6-6-6-6-6-6-6-6-6-6-6-6-6-6-6-6--|

Outro

e|-----------------------------------------------------------------------|
B|-----------------------------------------------------------------------|
G|-----------------7-8-7-7-8-------------------8-7-7-8-7-7-8-------------|
D|-----------------------------------------------------------------------| x2
A|-6-5-5-6-5-5-6-5-5-6-5-5-6-6-6-6-6-5-5-6-5-5-6-5-5-6-5-5-6-6-6-6-------|
D|-----------------------------------------------------------------------|

************************************

| /   slide up
| \   slide down
| h   hammer-on
| p   pull-off
| ~   vibrato
| +   harmonic
| x   Mute note
| b   Bend
| pb  Pre-bend
| br  Bend release
| pbr Pre-bend release
| brb Bend release bend

************************************
Добавлено: 29.05.2014
Другие материалы по этой песне:
  • Аккорды и текст

Страница создана 29.05.2014
http://primanota.ru/wzrd/love-hard-chords.htm
Привет, Гость.
Предлагаем пройти революционный курс по гитаре.
Подарок от PrimaNota.Ru, забирай!