PrimaNota.ru - самый крупный в мире бесплатный архив песенных текстов, аккордов, табулатур и нот


Wzrd - High Off Life - таба, видео

Регистрация Запомнить меня
Войти через:  Facebook Google Twitter Vk Yandex Mail.ru

Wzrd - High Off Life - таба, видео

Печатать
Просмотров: 78
-------------------------------------------------------------------------------
                           High Off Life - WZRD
-------------------------------------------------------------------------------
Tabbed by: Dalton P.
E-mail:

Tuning: Standard (EADGBe)

Don't forget to add some crunch to it.

Intro/Chorus:
e|--------------------------------------------------------------|
B|--------------------------------------------------------------|
G|--5--5--5--5--5--7--8--10-10-10-10-10-10-10-10-10-10-10-10-10-|
D|--5--5--5--5--5--7--8--10-10-10-10-10-10-10-10-10-10-10-10-10-|
A|--3--3--3--3--3--5--6--8--8--8--8--8--8--8--8--8--8--8--8--8--|
E|--------------------------------------------------------------|

e|--------------------------------------------------------------|
B|--------------------------------------------------------------|
G|--7--7--7--5--5--5--5--5--5--5--5--5--------------------------|
D|--7--7--7--5--5--5--5--5--5--5--5--5--------------------------|
A|--5--5--5--3--3--3--3--3--3--3--3--3--------------------------|
E|--------------------------------------------------------------|

Verse/Bridge:
e|--------------------------------------------------------------|
B|--------------------------------------------------------------|
G|--5--5--5--5--5--4--\3--3--3--3--3--3-------------------------|
D|--5--5--5--5--5--4--\3--3--3--3--3--3--5--5--5--5-------------|
A|--3--3--3--3--3--2--\1--1--1--1--1--1--5--5--5--5-------------|
E|---------------------------------------3--3--3--3-------------|

"Solo": 
e|--------------------------------------------------------------|
B|--------------------------------------------------------------|
G|--------------------------------------------------------------|
D|--5------3----------------------------------------------------|
A|----------------------------1------3--------------------------|
E|--------------------------------------------------------------|

e|--------------------------------------------------------------|
B|--------------------------------------------------------------|
G|-----------------5-5-5----------------------------------------|
D|--5------3-------3-3-3----------------------------------------|
A|----------------------------1------3--------------------------|
E|--------------------------------------------------------------|

Those are all the parts to the song, enjoy!

************************************

| /   slide up
| \   slide down
| h   hammer-on
| p   pull-off
| ~   vibrato
| +   harmonic
| x   Mute note
| b   Bend
| pb  Pre-bend
| br  Bend release
| pbr Pre-bend release
| brb Bend release bend

************************************
Добавлено: 05.06.2016
Вам также может быть интересно:
Другие материалы по этой песне:
  • Аккорды и текст

Страница создана 05.06.2016
http://primanota.ru/wzrd/high-off-life-chords.htm
Привет, Гость.
Предлагаем пройти революционный курс по гитаре.
Подарок от PrimaNota.Ru, забирай!