PrimaNota.ru - самый крупный в мире бесплатный архив песенных текстов, аккордов, табулатур и нот


The Wytches - Darker - аккорды и текст, таба, видео

Регистрация Запомнить меня
Войти через:  Facebook Google Twitter Vk Yandex Mail.ru

The Wytches - Darker - аккорды и текст, таба, видео

Печатать
Просмотров: 352
Уроки эстрадного вокала в Санкт-Петербурге
Darker
The Wytches
Song: Darker
Artist: The Wytches
Album: Burn Out The Bruise
=============================
http://www.thewytches.com
http://thewytches.tumblr.com
http://instagram.com/thewytches
http://thewytches.bandcamp.com
https://www.facebook.com/thewytches
https://soundcloud.com/thewytches
http://www.youtube.com/user/witchesmovies
https://twitter.com/thewytches
=============================
        



                                                                                      Uploaded:09/09/2014
        =Intro=

00:00   e--------------|--------------|--------------|------------|
        B--------------|--------------|--------------|------------|
        G--------------|--------------|--------------|------/12b--|
        D--------------|--------------|--------------|------------|
        A------0-4-2-0-|------0-4-2-0-|------0-4-2-0-|------------|
        E-2--2---------|-2--2---------|-2--2---------|-2----------|

        e--------------|--------------|--------------|------------|
        B--------------|--------------|--------------|------------|
        G--------------|--------------|--------------|------/12---|
        D--------------|--------------|--------------|------------|
        A------0-4-2-0-|------0-4-2-0-|------0-4-2-0-|------------|
        E-2--2---------|-2--2---------|-2--2---------|-2----------|

        e----------------|----------------|----------------|
        B----------------|----------------|----------------|
        G-11tb-----------|----------------|----------------|
        D----------------|-12-11--9-8--9--|-11tb-----------|
        A----------------|----------------|----------------|
        E----------------|----------------|----------------|

        

        =Verse=

        F#m             E                     D            C#m
00:26   I've been gone sleep walking for too long in the sinking sand
      F#m              E                    D           C#m
        It's no secret that it weighed me down as I extend my hands
      F#m                E                D               C#m
        And I see your face it drives me mad But no one else believes it
      F#m                         E                  D               C#m
        Please don't weigh me down like you used to care for it it's easier
        
        

        =Chorus=

                 F#m
01:07   And come back to me you vulnerable child
        
        You know your pale white skin drives all the rebels wild
                    G           A#
        And it gets darker and darker
                F#m
        I wanna dig your grave and be the reason you are in it

        I know it's not a game but I'm in it to win it
        G                 A#
        Dig it faster and dig it deep
                    F#m
        So put your hair up and all your clothes...
                E               D       C#m
        It gets easier to sleep
        


        =Verse=

        F#m           E               D             C#m 
01:41   You're so far out of love for me and it's a cruel world
      F#m               E                D                          C#m
        Dear love will life continue to scream but it sounds like love to me
                   F#m                   E              D                     C#m
        And I will certainly do whatever you tell me to as long as it would help you pass through
      F#m                       E                        D               C#m
        Please don't turn your back on things you don't want to see it's easy you'll see
        


        =Chorus=

                 F#m
02:19   And come back to me you vulnerable child

        You know your long black hair drives all the rich men wild
                G          A#
        It gets darker and darker
                F#m
        I wanna dig your grave and be the reason you are in it

        I know it's not a game but I'm in it to win it
        G                 A#
        Dig it faster and dig it deep
                    F#m
        So put your hair up and all your clothes...
                E               D       C#m
        It gets easier to sleep
        



        =Outro=

        I want it all
02:57            e--------------|--------------|--------------|---------------|
                 B--------------|--------------|--------------|---------------|
                 G--------------|--------------|--------------|--------2/12b--|
                 D--------------|--------------|--------------|---------------|
                 A------0-4-2-0-|------0-4-2-0-|------0-4-2-0-|---------------|
                 E-2--2---------|-2--2---------|-2--2---------|-2-------------|
        

        I want it all
                 e--------------|--------------|--------------|---------------|
                 B--------------|--------------|--------------|---------------|
                 G--------------|--------------|--------------|--------2/12b--|
                 D--------------|--------------|--------------|---------------|
                 A------0-4-2-0-|------0-4-2-0-|------0-4-2-0-|---------------|
                 E-2--2---------|-2--2---------|-2--2---------|-2-------------|
 


        =Solo=

03:12   e----------------|-------------------|----------------|
        B----------------|-------------------|----------------|
        G-11tb-----------|-11----------------|----------------|
        D----------------|----12-11-9\8-9/11-|-12tb-----------|
        A----------------|-------------------|----------------|
        E----------------|-------------------|----------------|

        e----------------|--------------|-------------|---------|
        B----------13-13-|----13-13-----|-------------|---------|
        G-11-------------|-11-------11--|-------------|-11~~----|
        D----------------|--------------|-9~~---------|---------|
        A----------------|--------------|--------/9~~-|---------|
        E----------------|--------------|-------------|---------|

        e-----------------|-----------------|----------------------------------------|
        B-----------------|-----------------|-13-13--------------------------13b-13b-|
        G-12~~----11~~----|-12~~----12~~----|-------11-------------------11----------|
        D-----------------|-----------------|----------12-11\9-8-9/11-12-------------|
        A-----------------|-----------------|----------------------------------------|
        E-----------------|-----------------|----------------------------------------|

        e---------|
        B---------|
        G---------|
        D---------|
        A---------|
        E-2-------|

                
        
        tb: tremolo bar



                               =========================================
                                Don't forget to rate! that helps a lot!
                               =========================================


····································
-f.alejandro27@gmail.com
-www.confort-reciclado.tumblr.com
-www.last.fm/user/mr_ahab

Добавлено: 04.08.2014
Другие материалы по этой песне:
  • Аккорды и текст

Страница создана 04.08.2014
http://primanota.ru/wytches/darker-chords.htm
Привет, Гость.
Предлагаем пройти революционный курс по гитаре.
Подарок от PrimaNota.Ru, забирай!