PrimaNota.ru - самый крупный в мире бесплатный архив песенных текстов, аккордов, табулатур и нот


Wyrd - Sad Song Of The Woods - текст песни, таба, видео

Регистрация Запомнить меня
Войти через:  Facebook Google Twitter Vk Yandex Mail.ru

Wyrd - Sad Song Of The Woods - текст песни, таба, видео

Печатать
Просмотров: 85
-------------------------------------------------------------------------------
                             Sad Song of the Woods - Wyrd
-------------------------------------------------------------------------------
Tabbed by: Sadark
E-mail:Sadassailant@gmail.com

Tuning: Standard

************************************
This is my first tab its not the best but I only made it because I was pissed that 
no one had published a Wyrd song so here it is.

| /   slide up
| \   slide down
| H   hammer-on
| P   pull-off
|Guitar 1: Acoustic (Standard Tune)
|Guitar 2: Acoustic (?)
(DONT FORGET: Listen for timing!!!)

Guitar 1(Id Recommend a using a pick because if you listen closely you can hear 
the little pick screech)
e|-----------------------------------------------------------------------------------|Riff 1
B|-----------------------------------------------------------------------------------|
G|-----------------------------------------------------------------------------------|
D|-----------------------------------------------------------------------------------|
A|-----1---------1---------1---------1---------1--------0---------0---------0--------|
E|-3---------3---------3---------3--------3--------2---------2---------2--------2----|
 
e|------------------------------------------------------------------------------------|Riff 2
B|------------------------------------------------------------------------------------|
G|------------------------------------------------------------------------------------|
D|------------------------------------------------------------------------------------|
A|--0---------0---------3---------3---------3---------3---------3---------2---------2-|
E|-------2---------1---------1---------1---------1---------1---------0---------0------|

e|-----------------------------------------------------------------------------------|Riff 3
B|-----------------------------------------------------------------------------------|
G|-----------------------------------------------------------------------------------|
D|-----------------------------------------------------------------------------------|
A|--------2---------2---------2---------2---------2---------2---------2---------2----|
E|---0---------0---------0---------4---------4---------4---------4---------4---------|

e|-----------------------------------------------------------------------------------|Riff 4
B|-----------------------------------------------------------------------------------|
G|-----------------------------------------------------------------------------------|
D|-----------------------------------------------------------------------------------|
A|------1---------1---------1---------1---------1---------4---------4---------4------|
E|-3---------3---------3---------3---------3---------2---------2---------2-----------|

e|-----------------------------------------------------------------------------------|Riff 5
B|-----------------------------------------------------------------------------------|
G|-----------------------------------------------------------------------------------|
D|-----------------------------------------------------------------------------------|
A|------4---------4---------3---------3---------3---------3---------3----------3-----|
E|-2---------2---------1---------1---------1---------1---------1----------5----------|

e|-----------------------------------------------------------------------------------|Riff 6
B|-----------------------------------------------------------------------------------|
G|-----------------------------------------------------------------------------------|
D|-----------------------------------------------------------------------------------|
A|------3---------3---------3---------3--------2---------2---------2---------2-------|
E|-5---------5---------5---------5---------4--------4---------4---------4------------|
Guitar 2(Guitar 1 repeats Riffs 1-6 in background and keeps repeating until riff 
well havent figured that out yet so ya this is it )

Trust me this part not too accurate but gives an idea of how it sounds

e|----------------------------------2--------------------------------------------------|Riff 7
B|-------------------7---3/2\3------3--------------------------------------------------|
G|--7----------------------------4-------------------3---2---0-----0h1p0---------------|
D|---------------------------------------------4---------------------------------------|
A|-----------------------3/2\3---------------------------------------------------------|
E|-------------------------------------------------------------------------------------|


Well wasnt that horrible at least I tried not too bad 2 out of 5 stars?
Добавлено: 30.03.2014
Вам также может быть интересно:
Другие материалы по этой песне:
  • Аккорды и текст

Страница создана 14.03.2012
http://primanota.ru/wyrd/sad-song-of-the-woods-chords.htm
Привет, Гость.
Предлагаем пройти революционный курс по гитаре.
Подарок от PrimaNota.Ru, забирай!