PrimaNota.ru - самый крупный в мире бесплатный архив песенных текстов, аккордов, табулатур и нот


Wu Lyf - Lyf - таба, видео

Регистрация Запомнить меня
Войти через:  Facebook Google Twitter Vk Yandex Mail.ru

Wu Lyf - Lyf - таба, видео

Печатать
Просмотров: 197
Уроки эстрадного вокала в Санкт-Петербурге
-------------------------------------------------------------------------------
                             LYF - WU LYF
-------------------------------------------------------------------------------
Tabbed by:cklug
E-mail:cklug123@terpmail.umd.edu
Not really that difficult just a lot to remember, great song though

Tuning:EADGBe

e|---------------------------------------------------------------------------|
B|---------------------------------------------------------------------------|
G|---------------------------------------------------------------------------|
D|-9-9-7-5-----5-------5-5-7-9-5---------------------------------------------|    X8
A|---------7-------7---------------------------------------------------------|
E|---------------------------------------------------------------------------|

e|------------------------------------------------------------------------------|
B|------------------------------------------------------------------------------|
G|------------------------------------------------------------------------------|
D|-14-14-12----14----12---------------------------------------------------------|  X1 
A|----------14-------------14----------14---12------10----10-12-14-10----14--14-|
E|------------------------------------12---------------12-----------------------|   
                                
e|---------------------------------------------------------------------------|
B|---------------------------------------------------------------------------|
G|---------------------------------------------------------------------------|  X3
D|-14-14-12------------------------------------------------------------------|
A|----------14--14----12------10----10-12-14-10----14--14--------------------|
E|-------------12----------------12------------------------------------------|
*listen carefully to hear subtle notes and for timing*

e|---------------------------------------------------------------------------|
B|---------------------------------------------------------------------------|  
G|-------------------------------12------------------------------------------|
D|-10-------------14-------------------------------------10--------------14--|   X1
A|---------------------------------------------------------------------------|
E|---------------------------------------------------------------------------|

e|---------------------------------------------------------------------------|
B|---------------------------------------------------------------------------|
G|---------------------------------------------------------------------------|
D|-------------12------------------------------------------------------------|     X7
A|----10-12-14----12141210--10-----------------------------------------------|
E|-12---------------------12-------------------------------------------------|

*last one has a little fill*
e|---------------------------------------------------------------------------|
B|---------------------------------------------------------------------------|  
G|---------------------------------------------------------------------------|
D|-------------12----12------------------------------------------------------|     X1
A|----10-12-14----14----14---------------------------------------------------|
E|-12------------------------------------------------------------------------|

solo:
e|----------------------------------------------------------------------------------------|
B|----------------------------12-12b---------------12-----------------------12----------15|
G|--------------------1212-14------------14----1214--1412--------1214----12----14-12------|
D|-14----14--1214----------------------------------------14---14--------------------------|
A|----------------------------------------------------------------------------------------|
E|----------------------------------------------------------------------------------------|

e|12--------12----------------------------------------------------------------------------|
B|------1215--15--12-----12----12-12---12---------------------------12--12--12------12----|
G|----------------------14-----------14--12-----14------------12-14--------14-----14--1412|
D|-------------------------------------------------14----1414-----------------------------|
A|----------------------------------------------------------------------------------------|
E|----------------------------------------------------------------------------------------|

e|----------------------------------------------------------------------------------------|
B|----------------------------------------------------------------------------------------|
G|12--12--14------------------------------------------------------------------------------|
D|----------14-12----12--12--14--12-----------12--------12--14-----14--14-12-12-14--------|
A|-----------------14--14------------14---1414--14---14------14--14--14------------12-----|
E|----------------------------------------------------------------------------------------|

e|---------------------------------------------------------------------------|
B|----------12---12-12-12----12----------------------------------------------|
G|------------------------14-------------------------------------------------|
D|-14-12---------------------------------------------------------------------|   
A|-------14------------------------------------------------------------------|
E|---------------------------------------------------------------------------| -end solo

e|---------------------------------------------------------------------------|
B|-1212----------------------------12----------------------------------------|
G|-----1412------12----------121214--12--------------------------------------|
D|---------14----------14----------------------------------------------------|   X3
A|---------------------------------------------------------------------------|
E|---------------------------------------------------------------------------|

e|---------------------------------------------------------------------------|
B|----------12---------------------------------------------------------------|
G|----12-14----14-12--1412--12-----------------------------------------------|
D|-14---------------------14-------------------------------------------------|   X6
A|---------------------------------------------------------------------------|
E|---------------------------------------------------------------------------|

e|---------------------------------------------------------------------------|
B|----------12-15---12-------------------------------------------------------|
G|----12-14-------14--1412--12-----------------------------------------------|
D|-14---------------------14-------------------------------------------------|   X4
A|---------------------------------------------------------------------------|
E|---------------------------------------------------------------------------|

e|---------------------------------------------------------------------------|
B|----------12-15---12-------------------------------------------------------|
G|----12-14-------14--1412--12-----------------------------------------------|
D|-14---------------------14---12--------------------------------------------|   X1
A|---------------------------------------------------------------------------|
E|---------------------------------------------------------------------------|

e|---------------------------------------------------------------------------|
B|-----12-------12-12--------------------------------------------------------|
G|-1414---------------14-12--------------------------------------------------|   x4
D|--------------------------12-----------------------------------------------|
A|---------------------------------------------------------------------------|
E|---------------------------------------------------------------------------|

e|---------------------------------------------------------------------------|
B|----------12-15---12-------------------------------------------------------|
G|----12-14-------14--1412--12-----------------------------------------------|
D|-12---------------------14-------------------------------------------------|   X4
A|---------------------------------------------------------------------------|
E|---------------------------------------------------------------------------|
Добавлено: 16.04.2015
Другие материалы по этой песне:
  • Аккорды и текст

Страница создана 16.04.2015
http://primanota.ru/wu-lyf/lyf-chords.htm
Привет, Гость.
Предлагаем пройти революционный курс по гитаре.
Подарок от PrimaNota.Ru, забирай!