PrimaNota.ru - самый крупный в мире бесплатный архив песенных текстов, аккордов, табулатур и нот


WT Feaster Band - Nickel Soul - таба, видео

Регистрация Запомнить меня
Войти через:  Facebook Google Twitter Vk Yandex Mail.ru

WT Feaster Band - Nickel Soul - таба, видео

Печатать
Просмотров: 33
Уроки эстрадного вокала в Санкт-Петербурге
Intro/Main Riff:
e||--------------------------------------1----------------------||
B||------------3/5\3~--------------------1----------------------||
G||-------x-x----------------3h4p3p0----------5----------3/5\3--||
D||--3/5--x-x--3/5\3~----3------------3-------5-----3----3/5\3--||
A||--3/5--x-x----------5---5----------3-------3---5---5---------||
E||--1/3--------------------------------------------------------||


Break Part:
e||--------------------------------------------------------------||
B||--------------------------------------------------------------||
G||--------------------------------------------------------------||
D||--/5~-3-----------/5~-3-----------/5~-3-----------------------||
A||--------5-4-3~~---------5-4-3~~---------5-4-3~~---3-1---------||
E||----------------x---------------x---------------------3-1-3~--||
Добавлено: 07.06.2016
Другие материалы по этой песне:
  • Аккорды и текст

Страница создана 07.06.2016
http://primanota.ru/wt-feaster-band/nickel-soul-chords.htm
Привет, Гость.
Предлагаем пройти революционный курс по гитаре.
Подарок от PrimaNota.Ru, забирай!