PrimaNota.ru - самый крупный в мире бесплатный архив песенных текстов, аккордов, табулатур и нот


Ws - Jp - текст песни, таба, бас-таба, видео

Регистрация Запомнить меня
Войти через:  Facebook Google Twitter Vk Yandex Mail.ru

Ws - Jp - текст песни, таба, бас-таба, видео

Печатать
Просмотров: 144
		   J.P.
by the W's
tabbed by ikswejahan@aol
standard tuning

Intro Riff:
e-------------------------------0-
b---------------------------0-0-0-
g-----------------------1-1-1-1-1-
d-----------------2-2-2-2-2-2-2-2-
a---------2-2-2-2-2-2-2-2-2-2-2-2-
E-0-0-0-0-0-0-0-0-0-0-0-0-0-0-0-0-

Verse Riff:
e-7-7-7-7--5-5-5-5-
b-9-9-9-9--5-5-5-5-
g-9-9-9-9--6-6-6-6-
d-9-9-9-9--7-7-7-7-
a-7-7-7-7----------
E------------------

Chorus: same as verse, but slowed down

Bridge:switch back and forth strumming these 2 chords
e--7----5--
b--9----5--
g--9----6--
d--9----7--


     
Добавлено: 25.07.2013
Другие материалы по этой песне:
  • Аккорды и текст

Страница создана 22.03.2012
http://primanota.ru/ws/jp-chords.htm
Привет, Гость.
Предлагаем пройти революционный курс по гитаре.
Подарок от PrimaNota.Ru, забирай!