PrimaNota.ru - самый крупный в мире бесплатный архив песенных текстов, аккордов, табулатур и нот


Wrinkle Neck Mules - Wandering Valley Prelude - аккорды и текст

Регистрация Запомнить меня
Войти через:  Facebook Google Twitter Vk Yandex Mail.ru

Wrinkle Neck Mules - Wandering Valley Prelude - аккорды и текст

Печатать
Просмотров: 61
Wandering Valley Prelude
Wrinkle Neck Mules
-------------------------------------------------------------------------------
                 WANDERING VALLEY PRELUDE - Wrinkle Neck Mules
-------------------------------------------------------------------------------
Tabbed by: A.J. Conner
E-mail: ajconner123@gmail.com

Tuning: Standard, CAPO 3RD FRET (ALL FRET NUMBERS AND CHORDS RELATIVE TO CAPO)

Alright so this one's the easiest song on the album, and it's more of a 
transition piece. You're pretty much just noodling around with the Em chord
over and over. I have a feeling this was mostly improvisation so I'm just 
going to tab out some key licks. 

DON'T FORGET, Capo on the 3rd fret!


CHORDS USED:

Em: 022000



e|---------------------------------------------------------------------------|
B|-----------------0---------------------------------------------------------|
G|--------0------------------------------------------------------------------|
D|------2-----------------2--2-----2-----------------------------------------|
A|----2-------2---------2--------2-------------------------------------------|
E|--0-------0---------0--------0---------------------------------------------|


Every now and then throw this in:
e|--0--0----0--0-------------------------------------------------------------|
B|--1--0----3--0-------------------------------------------------------------|
G|--0--0----0--0-------------------------------------------------------------|
D|--2--2----2--2-------------------------------------------------------------|
A|--2--2----2--2-------------------------------------------------------------|
E|--0--0----0--0-------------------------------------------------------------|

e|---------------------------------------------------------------------------|
B|--1/3-3-3--5-3-3--1-1-3-1--------------------------------------------------|
G|--------------------------2-0-2-0------------------------------------------|
D|----------------------------------2----------------------------------------|
A|---------------------------------------------------------------------------|
E|---------------------------------------------------------------------------|


ENDING:
e|--0--0----0-0-0--0-0-0-0----0-0-0--0-0-0--0--0-----------------------------|
B|--1--0----3-1-0--0-0-1-0----3-1-0--0-0-0--1--3-----------------------------|
G|--0--0----0-0-0--0-0-0-0----0-0-0--0-0-0--0--0-----------------------------|
D|--2--2----2-2-2--2-2-2-2----2-2-2--2-2-2--2--2-----------------------------|
A|--2--2----2-2-2--2-2-2-2----2-2-2--2-2-2--2--2-----------------------------|
E|--0--0----0-0-0--0-0-0-0----0-0-0--0-0-0--0--0-----------------------------|










************************************
| /   slide
************************************
Добавлено: 25.02.2016
Другие материалы по этой песне:
  • Аккорды и текст

Страница создана 25.02.2016
http://primanota.ru/wrinkle-neck-mules/wandering-valley-prelude-chords.htm
Привет, Гость.
Предлагаем пройти революционный курс по гитаре.
Подарок от PrimaNota.Ru, забирай!