PrimaNota.ru - самый крупный в мире бесплатный архив песенных текстов, аккордов, табулатур и нот


Wrinkle Neck Mules - Here But Missing - таба, видео

Регистрация Запомнить меня
Войти через:  Facebook Google Twitter Vk Yandex Mail.ru

Wrinkle Neck Mules - Here But Missing - таба, видео

Печатать
Просмотров: 63
-------------------------------------------------------------------------------
                     HERE BUT MISSING - Wrinkle Neck Mules
-------------------------------------------------------------------------------
Tabbed by: A.J. Conner
E-mail: ajconner123@gmail.com

Tuning: Standard

Seventh song on "Minor Enough". This song again features a mandolin which I 
have transcribed here for guitar in the intro, outro and solo. 


CHORDS USED:

D:   xx0232
A:   x02220
E:   022100
E7:  022130
F#m: 244222


INTRO RIFF:

e|--17-17-17-17--17--15-14-12------------------------------------------------|
B|---------------------------------------------------------------------------|
G|-----------------------------14--16/18--16--14--14-------------------------|
D|---------------------------------------------------------------------------|
A|---------------------------------------------------------------------------|
E|---------------------------------------------------------------------------|

                                        strum
e|--------------------------------------16-----------------------------------|
B|------15--------14--12----------------15-----------------------------------|
G|--14-----14-14----------14--14--14/16-16-----------------------------------|
D|---------------------------------------------------------------------------|
A|---------------------------------------------------------------------------|
E|---------------------------------------------------------------------------|


INTRO CHORDS:

D  A  E  A
D  A  E  E7


VERSE:

          D            A       E          A
It's all watchin' and learnin' or so they say,
D            A               E
Half of the time ya know it just ain't that way
      D          A          E            A
It's movin' and doin' and spoutin' and spewin'
D            A            E             E7
Drivin' this rig 'til the end of the day
      D    A           E            A
Well exercise there's just no more time,
D                  A              E
Switched from the beer to the fortified wine
D          A           E         A
Far less calorie with far more effect,
D             A              E                E7
Doesn't take long 'til I'm half way to wrecked


SOLO (Play INTRO chords overtop):


e|----------------------------------17-14------------------------------------|
B|--15------------------------------------17-15------------------------------|
G|------16--14--14--18--16--14--14--------------16--14-----------------------|
D|---------------------------------------------------------------------------|
A|---------------------------------------------------------------------------|
E|---------------------------------------------------------------------------|

                                        strum
e|--17-17-17-17--17--17--15--14-----------16---------------------------------|
B|-------------------------------17-------15---------------------------------|
G|----------------------------------16----16---------------------------------|
D|---------------------------------------------------------------------------|
A|---------------------------------------------------------------------------|
E|---------------------------------------------------------------------------|


VERSE 2 (Play same chords as VERSE 1):

Well the boss is mad 'cause I stole all the Sterno,

Drain it off and it's hell don't you know

One little sip and the colors start whizzin'

Call the police say I'm here but I'm missin'


OUTRO:

D         A                 E             A
Call the police 'cause I'm here but I'm missin'
D         A                 E       E7           
Call the police 'cause I'm heeeeeeeeere but I'm 
D         A          E           F#m
missin'
D       E        A


OUTRO RIFF:

e|------14-12---------14-12--------------------------------------------------|
B|--15-------------15------------15--15--14----------------------------------|
G|-------------14------------14--------------14------------------------------|
D|---------------------------------------------------------------------------|
A|---------------------------------------------------------------------------|
E|---------------------------------------------------------------------------|
                                       
e|---------------------------------------------------------------------------|
B|--15/17--17-17-17--14--15--------------strum-------------------------------|
G|---------------------------14--16/18-18------------------------------------|
D|-------------------------------------14------------------------------------|
A|--------------------------------------0------------------------------------|
E|---------------------------------------------------------------------------|




END






************************************
| /   slide up
| x   mute note
************************************
Добавлено: 25.02.2016
Другие материалы по этой песне:
  • Аккорды и текст

Страница создана 25.02.2016
http://primanota.ru/wrinkle-neck-mules/here-but-missing-chords.htm
Привет, Гость.
Предлагаем пройти революционный курс по гитаре.
Подарок от PrimaNota.Ru, забирай!