PrimaNota.ru - самый крупный в мире бесплатный архив песенных текстов, аккордов, табулатур и нот


Wriggles (Les) - Désolé Mémé - таба, видео

Регистрация Запомнить меня
Войти через:  Facebook Google Twitter Vk Yandex Mail.ru

Wriggles (Les) - Désolé Mémé - таба, видео

Печатать
Просмотров: 99
(/) Slide Up  (\) Slide Down  (h) Hammer On  (p) Pull Off  (b) Bend (r) Release (v) Vibrato



Mesure transitoire
  E
e|------------------|
B|---0--0-----0--0--|
G|---1--1-----1--1--|
D|2-----------------|
A|---------2--------|
E|------------------|

E|--------------------------------------------------------------------------------------------------
B|------6--8--6-------------10-----10-----10-----10--10-----10--10--------10--12--10-------------10-
G|---7-----------7--7/9----------------9------9----------9-------------9--------------9--7/9--------
D|--------------------------------------------------------------------------------------------------
A|--------------------------------------------------------------------------------------------------
E|--------------------------------------------------------------------------------------------------



E|--------------------------------------------------------------------------------------------------
B|--10-----10-----10--10--------10-----------6--8--6------------------------------------------------
G|------9------9----------9h10------------5-----------5--5/7-----9--9h10-----9--7--7/9-----7--5--5--
D|--------------------------------------------------------------------------------------------------
A|--------------------------------------------------------------------------------------------------
E|--------------------------------------------------------------------------------------------------



E|--------------------------------------------------------------------------------------------------
B|--------------------------------------------------------------------------------------------------
G|--5--5p4--4--4--4/7-----7--7\5--------------------------7p5--5/7--7h10--9--7--7h9--9--7--5--5--5h4
D|--------------------------------------------------------------------------------------------------
A|--------------------------------------------------------------------------------------------------
E|--------------------------------------------------------------------------------------------------



E|-------------------------
B|-------------------------
G|--4--4/7--7--5--4--------
D|-------------------7-----
A|-------------------------
E|-------------------------

                                                        
Добавлено: 25.11.2015
Другие материалы по этой песне:
  • Аккорды и текст

Страница создана 25.11.2015
http://primanota.ru/wriggles-les/desole-meme-chords.htm
Привет, Гость.
Предлагаем пройти революционный курс по гитаре.
Подарок от PrimaNota.Ru, забирай!