PrimaNota.ru - самый крупный в мире бесплатный архив песенных текстов, аккордов, табулатур и нот


Wrens - Happy - таба, видео

Регистрация Запомнить меня
Войти через:  Facebook Google Twitter Vk Yandex Mail.ru

Wrens - Happy - таба, видео

Печатать
Просмотров: 158
Авторы: Charles Bissell, Greg Whelan, Kevin Whelan, Jerry MacDonald

The Wrens - Happy
Tabbed by: james calabro
Email: jcalabro@hartford.edu

Tuning: standard

heres the tab for you to play along with or whatever. sorry about the way it is 
written; im sure you will grab the concept. its not 100% but then again
they never are, are they? (o.0) enjoy. more to come and i promise they will
be cleaner =D

guitar #1
e|----2--------2--------2--------2--------2-------2--------2--------2--------|
B|---4--------4--------4--------4--------4-------4--------4--------4---------|
G|--4--------4--------4--------4--------4-------4--------4--------4----------|
D|---------------------------------------------------------------------------|
A|---------------------------------------------------------------------------|
E|---------------------------------------------------------------------------|

guitar #2
e|--------------------------------------------------------------0------------|
B|--------------------------------------------------11------------------11---|
G|---------------------------------------------------------------------------|
D|---------------------------------------------------------------------------|
A|---------------------------------------------------------------------------|
E|---------------------------------------------------------------------------|

guitar #1
e|----2--------2--------2--------2--------2--------2--------2--------2-------|
B|---4--------4--------4--------4--------4--------4--------4--------4--------|
G|--4--------4--------4--------4--------4--------4--------4--------4---------|
D|---------------------------------------------------------------------------|
A|---------------------------------------------------------------------------|
E|---------------------------------------------------------------------------|

guitar #2
e|-----------------0----2----------0------0--------2--0-----2----------12--11|
B|---------------------4---4--2----------4--------4--------4---11-12---------|
G|--------------------4-----------------4--------4--------4------------------|
D|---------------------------------------------------------------------------|
A|---------------------------------------------------------------------------|
E|---------------------------------------------------------------------------|

guitar #1
e|----2--------2----2-----0----2----2-----2-----2-------2------2-------------|
B|---4--------4----4-----4----4----4-----4-----4-------4------4--------------|
G|--4--------4----4-----4----4----4-----4-----4-------4------4---------------|
D|---------------------------------------------------------------------------|
A|---------------------------------------------------------------------------|
E|---------------------------------------------------------------------------|

guitar #2
e|-------------------0------------------------12^-11-------------------------|
B|---12--11-12----7------------------11-12--------------12---11-12----7------|
G|---------------------------------------------------------------------------|
D|---------------------------------------------------------------------------|
A|---------------------------------------------------------------------------|
E|---------------------------------------------------------------------------|

ok you get where this is going: i hope! this just repeats; distorts; all that
sweet jazz. same notes really.

next heres the main guitar part for you.

Repeat a bunch of times O-(ooQ)

e|---14---------------12---------12----------14--------------14-----18-19----|
B|-------16-----16--------16---------16----------16------16------------------|
G|-----------16----16---------16---------16----------16----------------------|
D|---------------------------------------------------------------------------|
A|---------------------------------------------------------------------------|
E|---------------------------------------------------------------------------|

for the final part (the part thats rock as hell; yes that one)
heres one of the guitar parts for you to play along with.

e|---------------------------------------------------------------------------|
B|---------------------------------------------------------------------------|
G|--13-13-13-13-13-14-14-14--------------------------------------------------|
D|--14-14-14-14-14-14-14-14--------------------------------------------------|
A|--11-11-11-11-11-12-12-12--------------------------------------------------|
E|---------------------------------------------------------------------------|


| ^ = bend
Добавлено: 03.05.2012
Другие материалы по этой песне:
  • Аккорды и текст

Страница создана 03.05.2012
http://primanota.ru/wrens/happy-chords.htm
Привет, Гость.
Предлагаем пройти революционный курс по гитаре.
Подарок от PrimaNota.Ru, забирай!