PrimaNota.ru - самый крупный в мире бесплатный архив песенных текстов, аккордов, табулатур и нот


Wrens - Everyone Chooses Sides - таба, видео

Регистрация Запомнить меня
Войти через:  Facebook Google Twitter Vk Yandex Mail.ru

Wrens - Everyone Chooses Sides - таба, видео

Печатать
Просмотров: 89
============Everyone Chooses Sides============

========Main riff========

E|------------------|  |-------------------------------------|
B|--3--3--3--5-3-3--|x2|--2--2--2--3-2-0--1/3-1/3-1/3\1-1p0--|
G|--x--x--x--x-x-6--|  |--2--2--2--2-2-2--2/4-2/4-2/4\2-2p0--|
D|--4--4--4--4-4-4--|  |--2--2--2--2-2-2--x-x-x-x-x-x-x-x-x--|
A|--5--5--5--5-5-5--|  |--0--0--0--0-0-0--3/5-3/5-3/5\3-3p0--|
E|------------------|  |-------------------------------------|

========Verse========

==Guitar 1==

E|--2--|  |--2--|  |--0--|  |--0--|  |--3--|
B|--3--|x8|--3--|x8|--2--|x8|--0--|x4|--3--|x4
G|--4--|  |--2--|  |--2--|  |--0--|  |--0--|
D|--4--|  |--0--|  |--2--|  |--2--|  |--0--|
A|--2--|  |-----|  |--0--|  |--2--|  |--2--|
E|-----|  |-----|  |-----|  |--0--|  |--3--|

==Guitar 2==

E|--14-14-14-15--|  |--12-12-12-14--|  |--15-15-15-17--|
B|---------------|x4|---------------|x2|---------------|x2
G|---------------|  |---------------|  |---------------|
D|---------------|  |---------------|  |---------------|
A|---------------|  |---------------|  |---------------|
E|---------------|  |---------------|  |---------------|

Note: this is actually played by a piano

==Guitar 3==

E|-----------------------------------|
B|-----------------------------------|
G|--4---4---2---2---2---2---0---0----|
D|----4---4---4---4---2---2---2---0--|
A|-----------------------------------|
E|-----------------------------------|

==Guitar 4==

E|--10--|   |--9---|  |--10--|  
B|--x---|x16|--x---|x8|--x---|x8
G|--11--|   |--9---|  |--12--|  
D|------|   |------|  |------| 
A|------|   |------|  |------|  
E|------|   |------|  |------|  

========Pre-chorus========

Guitar 1:

E|--14-15-15-14--15-15-14-14--12-12-12-12--|
B|--x--x--x--x---x--x--x--x---x--x--x--x---|
G|--16-16-16-16--16-16-16-16--14-14-14-14--|
D|-----------------------------------------|
A|-----------------------------------------|
E|-----------------------------------------|

Guitar 2:

E|---------------------------|
B|---------------------------|
G|--4-4-4-4-4-4-4-4-2-2-2-2--|
D|--4-4-4-4-4-4-4-4-2-2-2-2--|
A|--2-2-2-2-2-2-2-2-0-0-0-0--|
E|---------------------------|

Guitar 1:

E|--12----12----12----12----12----12----10----10-----|
B|---------------------------------------------------|
G|-----14----14----14----14----12----12----11----11--| 
D|---------------------------------------------------|
A|---------------------------------------------------|
E|---------------------------------------------------|

Guitar 2:

E|---------------------------------------------------|
B|--15----15----15----15----15----15----14----14-----|
G|---------------------------------------------------| 
D|-----17----17----17----17----16----16----14----14--|
A|---------------------------------------------------|
E|---------------------------------------------------|

========Chorus========

==Beginning==

Guitar 1:

E|--2~---2--0----------|
B|--3~---3--2~---------|
G|--2~---2--2~---7\6~--|
D|--0~---0--2~---x-x---|
A|----------0~---5\4~--|
E|---------------------|

Guitar 2:

E|-----------------------------|
B|-----------------------------|
G|--7-x-7-x-7-x-7-x-7-x--7-6~--|
D|--x-7-x-7-x-7-x-7-x-7--------|
A|-----------------------------|
E|-----------------------------|

Played 3 times in the first chorus, 4 times in the second. Add endings 1 and 2 the first 2 times you play it in 
chorus 1, and add all 3 endings the first 3 times you play it in chorus 2. 

Add this guitar part the the 3rd time:

Guitar 3:

E|---------------|  |---------------|  
B|---------------|x2|---------------|x2
G|--11-11-11-12--|  |--9--9--9--11--|  
D|---------------|  |---------------|  
A|---------------|  |---------------|  
E|---------------|  |---------------| 

Add this guitar part the 4th time:

Guitar 3:

E|---------------|  |--------------|  |--------------|
B|---------------|x2|--------------|x2|--------------|x4
G|--11-11-11-12--|  |-9--9--9--11--|  |-12-12-12-14--|
D|---------------|  |--------------|  |--------------|
A|---------------|  |--------------|  |--------------|
E|---------------|  |--------------|  |--------------|

==Ending 1 and 3==

Guitar 1:

E|--12----12----12----12----12----12----10----10-----|
B|---------------------------------------------------|
G|-----14----14----14----14----12----12----11----11--| 
D|---------------------------------------------------|
A|---------------------------------------------------|
E|---------------------------------------------------|

Guitar 2:

E|---------------------------------------------------|
B|--15----15----15----15----15----15----14----14-----|
G|---------------------------------------------------| 
D|-----17----17----17----17----16----16----14----14--|
A|---------------------------------------------------|
E|---------------------------------------------------|

==Ending 2==

Guitar 1:

E|--0~---0--3~---3--|
B|--0~---0--3~---3--|
G|--0~---0--0~---0--|
D|--2~---2--0~---0--|
A|--2~---2--2~---2--|
E|--0~---0--3~---3--|

Guitar 3:

E|---------------|  
B|---------------|x4
G|--11-11-11-12--|  
D|---------------|  
A|---------------| 
E|---------------| 

NOTE: ENDING 3 IS ONLY PLAYED IN THE SECOND CHORUS

========Bridge========

Guitar 1:

E|-------------------------------------------|
B|-------------------------------------------|x2
G|---------------------------------------0~--|
D|-------12+-------12+-------11~-------------|
A|--12+-------12+-------12+------------------|
E|--------------------------------12+--------|

I'm pretty sure the bass plays these harmonics as well. The 11th fret note on D and open G note are actually 
a 9th fret harmonic on the A string and a 12th fret harmonic on the G string, played on bass.   

Then at the end of the bridge:

Guitar 2:

E|--17b--17b-17b--17bbbbbbbb\\\\--|
B|--16b--16b-16b--16bbbbbbbb\\\\--|
G|--15b--15b-15b--15bbbbbbbb\\\\--|
D|--------------------------------|
A|--------------------------------|
E|--------------------------------|

Basically, bend this chord a lot, then slide down quickly at the end

========Finale========

==Guitar 1==

E|--2--|  |--2--|  |--0--|  |--0--|  |--3--|
B|--3--|x8|--3--|x8|--2--|x8|--0--|x4|--3--|x4
G|--4--|  |--2--|  |--2--|  |--0--|  |--0--|
D|--4--|  |--0--|  |--2--|  |--2--|  |--0--|
A|--2--|  |-----|  |--0--|  |--2--|  |--2--|
E|-----|  |-----|  |-----|  |--0--|  |--3--|

==Guitar 2==

E|---------------|  |---------------|  |---------------|
B|---------------|x4|---------------|x2|---------------|x2
G|--11-11-11-12--|  |--9--9--9--11--|  |--12-12-12-14--|
D|---------------|  |---------------|  |---------------|
A|---------------|  |---------------|  |---------------|
E|---------------|  |---------------|  |---------------|

==Guitar 3==

E|-----------------------------------|
B|-----------------------------------|
G|--4---4---2---2---2---2---0---0----|
D|----4---4---4---4---2---2---2---0--|
A|-----------------------------------|
E|-----------------------------------|

==Guitar 4==

Play this once:

E|----------------------------|
B|--15~---15~---14~---10~-8~--|
G|--x-----x-----x-----x---x---|
D|--12~---12~---11~---7~--5~--| 
A|----------------------------|
E|----------------------------|

Then play this until the end:

E|---------------------------|
B|--7~---15~---14~---10~-8~--|
G|--x-----x-----x----x---x---|
D|--4~---12~---11~---7~--5~--| 
A|---------------------------|
E|---------------------------|

==Guitar 5==

E|--17~---17~---17~---15~---14~--|
B|--x-----x-----x-----x-----x----|
G|--14~---14~---14~---12~---11~--|
D|-------------------------------|
A|-------------------------------|
E|-------------------------------|

Guitar 5 plays in the gaps between the octaves that guitar 4 plays

========Fills========

==Fill 1==

E|-------------------------------|
B|-------------------------------|
G|--4--4--4--4--/16--16--16\\\\--|
D|--x--x--x--x---x---x---x-------|
A|--2--2--2--2--/14--14--14\\\\--|
E|-------------------------------|

==Fill 2==

Guitar 1:

E|--10-10--x-x--10-10--x-x--|
B|--x--x---x-x--x--x---x-x--|
G|--12-12--x-x--12-12--x-x--|
D|--------------------------|
A|--------------------------|
E|--------------------------|

Guitar 2:

E|----------------------|
B|-------X-X-------X-X--|
G|--0----X-X--0----X-X--|
D|----2--X-X----0--X-X--|
A|----------------------|
E|----------------------|
          
==Fill 3==

E|-----------------------------------|
B|-----------------------------------|
G|--5--5--5--5--/17--17--17--17\\\\--|
D|--x--x--x--x---x---x---x---x-------|
A|--3--3--3--3--/15--15--15--15\\\\--|
E|-----------------------------------|

==Fill 4==

Guitar 1:

E|-----------------------------------|
B|-----------------------------------|
G|--4--4--4--4--/16--16--16--16\\\\--|
D|--x--x--x--x---x---x---x---x-------|
A|--2--2--2--2--/14--14--14--14\\\\--|
E|-----------------------------------|

Guitar 2:

E|--10b--|   
B|--x----|x16
G|--14b--|   
D|-------|
A|-------|   
E|-------| 

OR (it's quite hard to tell)

E|-------|   
B|-------|x16
G|--16b--|   
D|--x----|
A|--14b--|   
E|-------| 

Guitar 3:

E|---------------------|
B|---------------------|
G|--4/7\4/7\4/7\4/7\4--|
D|---------------------|
A|---------------------|
E|---------------------|

============Structure============

Main riff x4
Verse (chords only)
Main riff x2
Fill 1
Verse
Fill 2
Pre-chorus
Chorus 
Fill 3
Main riff x2 (play the guitar 2 part from the finale underneath)
Fill 4
Bridge
Verse 
Fill 2
Pre-chorus
Chorus 
Fill 3 
Finale 

============Key============

/ - slide 
x - mute string
b - bend
~ - sustain note
+ - natural harmonic
h - hammer on
p - pull off
() - optional note

============Credits============

.Song by the Wrens
.Tabbed by Patrick Johnston 

EDIT: 

E|--10--|   |--9---|  |--10--|  
B|--x---|x16|--x---|x8|--x---|x8
G|--11--|   |--9---|  |--12--|  
D|------|   |------|  |------| 
A|------|   |------|  |------|  
E|------|   |------|  |------|  

The above guitar part might be combined with the 'piano riff' in the chorus and finale to create this:

E|--10-10-10-10--|  |--9--9--9--9---|  |--10-10-10-10--|
B|--x--x--x--x---|x4|--x--x--x--x---|x2|--x--x--x--x---|x2
G|--11-11-11-12--|  |--9--9--9--11--|  |--12-12-12-14--|
D|---------------|  |---------------|  |---------------|
A|---------------|  |---------------|  |---------------|
E|---------------|  |---------------|  |---------------|

Добавлено: 18.12.2015
Другие материалы по этой песне:
  • Аккорды и текст

Страница создана 18.12.2015
http://primanota.ru/wrens/everyone-chooses-sides-chords.htm
Привет, Гость.
Предлагаем пройти революционный курс по гитаре.
Подарок от PrimaNota.Ru, забирай!