PrimaNota.ru - самый крупный в мире бесплатный архив песенных текстов, аккордов, табулатур и нот


The Wreckage - Breaking Through Full Song - таба, видео

Регистрация Запомнить меня
Войти через:  Facebook Google Twitter Vk Yandex Mail.ru

The Wreckage - Breaking Through Full Song - таба, видео

Печатать
Просмотров: 84
-------------------------------------------------------------------------------
                             Breaking Through - The Wreckage
-------------------------------------------------------------------------------
Tabbed by:Connor Tomlin
E-mail:

Tuning:Drop C
                               Intro
e|----------------------------------------------------------|
B|----------------------------------------------------------|
G|----------------------------------------------------------|
D|-10-10-10---10--10-1-1-1--1- 1-3-3-3--3- 6-6-6-6-9-9-9-9--|
A|-10-10-10---10--10-1-1-1--1- 1-3-3-3--3- 6-6-6-6-9-9-9-9--|
E|-10-10-10---10--10-1-1-1--1- 1-3-3-3--3- 6-6-6-6-9-9-9-9--|

e|----------------------------------------------------------|
B|----------------------------------------------------------|
G|----------------------------------------------------------|
D|-10-10-10---10--10-1-1-1--1--1-3-3-3--3--6-6-6-6-9-9-9-9--|
A|-10-10-10---10--10-1-1-1--1--1-3-3-3--3--6-6-6-6-9-9-9-9--|
E|-10-10-10---10--10-1-1-1--1--1-3-3-3--3--6-6-6-6-9-9-9-9--|

e|-----------------------------------------------------------------|
B|-----------------------------------------------------------------|
G|-----------------------------------------------------------------|
D|-10-10-10--10---10-1-1-1--1--1-3-3-3--3--6-6-6-6-5-5-5-5--3~~~~--|
A|-10-10-10--10---10-1-1-1--1--1-3-3-3--3--6-6-6-6-5-5-5-5--3~~~~--|
E|-10-10-10--10---10-1-1-1--1--1-3-3-3--3--6-6-6-6-5-5-5-5--3~~~~--|
                              Pre-Chorus
e|------------------------------------------------------------------------------|
B|------------------------------------------------------------------------------|
G|------------------------------------------------------------------------------|
D|-9-10--10-- 1- 1- 1h3- 3---6-9------9-10--10---1--1--1h3--3---6-9--5-5-5-7-7--|
A|-9-10--10-- 1- 1--1h3--3---6 9-[x4]-9-10--10---1--1--1h3--3---6-9--5-5-5-7-7--|
E|-9-10--10-- 1- 1--1h3--3---6 9------9-10--10---1--1--1h3--3---6-9--3-3-3 5-5--|
                                Chorus
e|---------------------------------------------------------------|
B|---------------------------------------------------------------|
G|---------------------------------------------------------------|
D|-10-10-10---10--10-1-1-1--1--1-3-3-3--3--6-6-6-6-9-9-9-9-------|
A|-10-10-10---10--10-1-1-1--1--1-3-3-3--3--6-6-6-6-9-9-9-9-[x2]--|
E|-10-10-10---10--10-1-1-1--1--1-3-3-3--3--6-6-6-6-9-9-9-9-------|

e|-----------------------------------------------------|
B|-----------------------------------------------------|
G|-----------------------------------------------------|
D|-10-10-10-10-10-1-1-1-1-1-3-3-3-3-3-6-6-6-6-9-9-9-9--|
A|-10-10-10-10-10-1-1-1-1-1-3-3-3-3-3-6-6-6-6-9-9-9-9--|
E|-10-10-10-10-10-1-1-1-1-1-3-3-3-3-3-6-6-6-6-9-9-9-9--|

                           Repeat Pre-Chorus then Chorus

                                       Bridge
e|-------------------------------------------------------------------------------------------------------|
B|-------------------------------------------------------------------------------------------------------|
G|Lead--------7-7-9-9-7-7-9-9-10-10-9-9-10-10-7-7----------10-10-12-12-8-8-10-10-5-5-7-7--(Repeat both)--|
D|Rhythm-10-10----10-10------------10101010--9-5h7777/9999-----------------------------------------------|
A|Rhythm-10-10----10-10------------10101010--9-5h7777/9999-[x3]------------------------------------------|
E|Rhythm-10-10----10-10------------10101010--9-5h7777/9999-----------------------------------------------|
                            (Four fast ^ 10th fret)

                                     Repeat Chorus

                                         End
e|----------------------------------------|
B|----------------------------------------|
G|----------------------------------------|
D|-10-10---10-10---10-10---10-10---10-10--|
A|-10-10---10-10---10-10---10-10---10-10--|
E|-10-10---10-10---10-10---10-10---10-10--|


************************************

| /   slide up
| \   slide down
| h   hammer-on
| p   pull-off
| ~   vibrato
| +   harmonic
| x   Mute note
| b   Bend
| pb  Pre-bend
| br  Bend release
| pbr Pre-bend release
| brb Bend release bend

************************************
Добавлено: 15.11.2015
Вам также может быть интересно:
Другие материалы по этой песне:
  • Аккорды и текст

Страница создана 15.11.2015
http://primanota.ru/wreckage/breaking-through-full-song-chords.htm
Привет, Гость.
Предлагаем пройти революционный курс по гитаре.
Подарок от PrimaNota.Ru, забирай!