PrimaNota.ru - самый крупный в мире бесплатный архив песенных текстов, аккордов, табулатур и нот


Wraygunn - Dont You Wanna Dance - таба, видео

Регистрация Запомнить меня
Войти через:  Facebook Google Twitter Vk Yandex Mail.ru

Wraygunn - Dont You Wanna Dance - таба, видео

Печатать
Просмотров: 98
-------------------------------------------------------------------------------
                             DON'T YOU WANNA DANCE - Wraygunn
-------------------------------------------------------------------------------
Tabbed by: qebrapareds
E-mail: qebrapareds@gmail.com   

Tuning: Standard - Capo on 2

Tabs ---------------------------------------------------

Verse\Chorus:
    C            Am           F            G
e|--0----3-0--|--0----1-0--|--1----3-1--|--3----5-3--|
B|--1----1-1--|--1----1-1--|--1----1-1--|--3----3-3--|
G|--0----0-0--|--2----2-2--|--2----2-2--|--4----4-4--|
D|--2---------|--2---------|--3---------|--5---------|
A|--3---------|--0---------|--3---------|--5---------|
E|------------|------------|--1---------|--3---------|


Bridge:
    F            G            C            Am
e|--1-1----1--|--3-3----3--|--0-0----0--|--0-0----0--|
B|--1-1----1--|--3-3----3--|--1-1----1--|--1-1----1--|
G|--2-2----2--|--4-4----4--|--0-0----0--|--2-2----2--|
D|--3-3----3--|--5-5----5--|--2-2----2--|--2-2----2--|
A|--3-3----3--|--5-5----5--|--3-3----3--|--0-0----0--|
E|--1-1----1--|--3-3----3--|------------|------------|

    F            F            G            G
e|--1-1----1--|--1-1----1--|--3-3----3--|--3--x--x---|
B|--1-1----1--|--1-1----1--|--3-3----3--|--3--x--x---|
G|--2-2----2--|--2-2----2--|--4-4----4--|--4--x--x---|
D|--3-3----3--|--3-3----3--|--5-5----5--|--5--x--x---|
A|--3-3----3--|--3-3----3--|--5-5----5--|--5--x--x---|
E|--1-1----1--|--1-1----1--|--3-3----3--|--3--x--x---|

Lyrics -------------------------------------------------

Verse:
Girl I wanna see the world,
I wanna see through your eye
'cause your eyes see so much more than mine 
and they're smiling all the time 

Bridge:
Oh don't you wanna dance, 
'cause tonight we have that chance 
baby, don't you wanna dance 
oh with me?

Chorus:
Girl don't you wanna dance with me 
baby don't you wanna dance with me 
don't you wanna dance, tonight we have that chance?
don't you wanna dance, tonight we have that chance?

Verse:
Well the morning's almost for..side 
this case black and white 
but tomorrow you'll be by my side
and you'll grow as well shine 

do you wanna see the road baby 
from my eye 
I know I can't see far 
but if you'll close I guess it's fine 

Bridge:
Don't you wanna dance, 
'cause tonight we have that chance 
girl, don't you wanna dance 
oh with me?

Chorus:
Don't you wanna dance, tonight we have that chance? (with me) x 8
Добавлено: 02.09.2013
Вам также может быть интересно:
Другие материалы по этой песне:
  • Аккорды и текст

Страница создана 02.09.2013
http://primanota.ru/wraygunn/dont-you-wanna-dance-chords.htm
Привет, Гость.
Предлагаем пройти революционный курс по гитаре.
Подарок от PrimaNota.Ru, забирай!