PrimaNota.ru - самый крупный в мире бесплатный архив песенных текстов, аккордов, табулатур и нот


Wöyh - Unisäikeet - таба, видео

Регистрация Запомнить меня
Войти через:  Facebook Google Twitter Vk Yandex Mail.ru

Wöyh - Unisäikeet - таба, видео

Печатать
Просмотров: 61
-------------------------------------------------------------------------------
                              Wöyh! - Unisäikeet
-------------------------------------------------------------------------------

Tabbed by: myskimasa

Tuning: drop D

VERSE 1
e|-----------------------------------------------------------------|
B|-----------------------------------------------------------------|
G|-------------------------------0---------------------------------|
D|-----------3---3-----------3---------------3---3-----------3-----|
A|---------------------------------------------------------------0-|
D|-1---------------------------------------------------------------|

e|-----------------------------------------------------------------|
B|-----------------------------------------------------------------|
G|-------------------------------0---------------------------------|
D|-----------3---3-----------3---------------3---3-----------3-----|
A|---------------------------------------------------------------0-|
D|---------------------------------------------------------------0-|

e|-------------------------------------------------------------------|
B|-------------------------------------------------------------------|
G|-------------------------------0-----------------------------------|
D|-----------3---3-----------3---------------3---3-----------3p2p0---|
A|-----------------------------------------------------------------0-|
D|-------------------------------------------------------------------|

e|-------------------------------------------------------------------|
B|-------------------------------------------------------------------|
G|-------------------------------0-----------------------------------|
D|-----------3---3-----------3---------------3---3-----------3p2p0---|
A|-0---------------------------------------------------------------0-|
D|-0-----------------------------------------------------------------|

PRE-CHORUS
e|-------------------------------------------------------------------|
B|-------------------------------------------------------------------|
G|-------------------------------------------------------------------|
D|---------------------------------8-7p4p0---4p0-----4p2p0-------0---|
A|-0-0h1h4---0h4h7---0h7h10---0h10---------0-----0-----------0h4-----|
D|-0-------0-------0--------0----------------------0-------0-------0-|

VERSE 2
e|-----------------------------------------------------------------|
B|-----------------------------------------------------------------|
G|-------------------------------0---------------------------------|
D|-----------3---3-----------3---------------3---3-----------3-----|
A|---------------------------------------------------------------0-|
D|-1---------------------------------------------------------------|

e|-----------------------------------------------------------------|
B|-----------------------------------------------------------------|
G|-------------------------------0---------------------------------|
D|-----------3---3-----------3---------------3---3-----------3-----|
A|---------------------------------------------------------------0-|
D|---------------------------------------------------------------0-|

e|-------------------------------------------------------------------|
B|-------------------------------------------------------------------|
G|-------------------------------0-----------------------------------|
D|-----------3---3-----------3---------------3---3-----------3p2p0---|
A|-----------------------------------------------------------------0-|
D|-------------------------------------------------------------------|

e|-------------------------------------------------------------------|
B|-------------------------------------------------------------------|
G|-------------------------------0-----------------------------------|
D|-----------3---3-----------3---------------3---3-----------3p2p0---|
A|-0---------------------------------------------------------------0-|
D|-0-----------------------------------------------------------------|

PRE-CHORUS
e|-------------------------------------------------------------------|
B|-------------------------------------------------------------------|
G|-------------------------------------------------------------------|
D|---------------------------------8-7p4p0---4p0-----4p2p0-------0---|
A|-0-0h1h4---0h4h7---0h7h10---0h10---------0-----0-----------0h4---0-|
D|-0-------0-------0--------0----------------------0-------0---------|

e|-------------------------------------------------------------------|
B|-------------------------------------------------------------------|
G|-------------------------------------------------------------------|
D|---------------------------------8-7p4p0---4p0-----4p2p0-------0---|
A|---0h1h4---0h4h7---0h7h10---0h10---------0-----0-----------0h4---0-|
D|-0-------0-------0--------0----------------------0-------0---------|

e|-------------------------------------------------------------------|
B|-------------------------------------------------------------------|
G|-------------------------------------------------------------------|
D|---------------------------------8-7p4p0---4p0-----4p2p0-------0---|
A|---0h1h4---0h4h7---0h7h10---0h10---------0-----0-----------0h4---0-|
D|-0-------0-------0--------0----------------------0-------0---------|

e|------------------------------------------------------4-----------|
B|----------------------------------------------1---3-------3-------|
G|--------------------------------------------------------------1---|
D|---------------------------------8-------0------------------------|
A|---0h1h4---0h4h7---0h7h10---0h10-----0h4--------------------------|
D|-0-------0-------0--------0--------0------------------------------|

e|-------------------4-------------------------------4-------------|
B|-----------1---3-------3-------------------1---3-------3---------|
G|---------------------------1-------------------------------1-----|
D|-------0-------------------------------0-------------------------|
A|---0h4-----------------------------0h4---------------------------|
D|-0-------------------------------0-------------------------------|

e|-------------------4-------------|
B|-----------1---3-------3---------|
G|---------------------------1-----|
D|-------0-------------------------|
A|---0h4---------------------------|
D|-0-------------------------------|

CHORUS
e|-----------------------------------------------------------------|
B|-----------------------------------------------------------------|
G|-----------------------------------------------------------------|
D|-----------3---3-----------3---2-----------2---2-----------2---2-|
A|-----------------------------------------------------------------|
D|-5-5-5-5-----5---5-5-5-5-----5---3-3-3-3-----3---3-3-3-3-----3---|

e|-----------------------------------------------------------------|
B|-----------------------------------------------------------------|
G|-----------------------------------------------------------------|
D|-----------2---2-----------2---1-----------1---1-----------2---3-|
A|-----------------------------------------------------------------|
D|-2-2-2-2-----2---2-2-2-2-----2---2-2-2-2-----2---2-2-2-2---------|

e|-----------------------------------------------------------------|
B|-----------------------------------------------------------------|
G|-----------------------------------------------------------------|
D|-----------3---3-----------3---2-----------2---2-----------2---0-|
A|-----------------------------------------------------------------|
D|-5-5-5-5-----5---5-5-5-5-----5---3-3-3-3-----3---3-3-3-3-----3---|

e|------------------------------------------------------------|
B|------------------------------------------------------------|
G|------------------------------------------------------------|
D|-----------0---0-----------0---0-----0---2-----2---0--------|
A|-------------------------------0-----0---4-----4---0--------|
D|-2-2-2-2-----2---2-2-2-2-----2-0-----0---2-----2---0--------|

VERSE 3
e|-----------------------------------------------------------------|
B|-----------------------------------------------------------------|
G|-------------------------------0---------------------------------|
D|-----------3---3-----------3---------------3---3-----------3-----|
A|---------------------------------------------------------------0-|
D|-1-1-1-1-1---1---1-1-1-1-1---1---1-1-1-1-1---1---1-1-1-1-1---1---|

e|-----------------------------------------------------------------|
B|-----------------------------------------------------------------|
G|-------------------------------0---------------------------------|
D|-----------3---3-----------3---------------3---3-----------3-----|
A|---------------------------------------------------------------0-|
D|-1-1-1-1-1---1---1-1-1-1-1---1---1-1-1-1-1---1---1-1-1-1-1---1---|

e|---------------------------------------------------------------------|
B|---------------------------------------------------------------------|
G|-------------------------------0-------------------------------------|
D|-----------3---3-----------3---------------3---3-----------3p2p0-----|
A|-----------------------------------------------------------------0---|
D|-0-0-0-0-0---0---0-0-0-0-0---0---0-0-0-0-0---0---0-0-0-0-0---------0-|

e|---------------------------------------------------------------------|
B|---------------------------------------------------------------------|
G|-------------------------------0-------------------------------------|
D|-----------3---3-----------3---------------3---3-----------3p2p0-----|
A|-----------------------------------------------------------------0---|
D|-0-0-0-0-0---0---0-0-0-0-0---0---0-0-0-0-0---0---0-0-0-0-0---------0-|

PRE-CHORUS
e|-------------------------------------------------------------------|
B|-------------------------------------------------------------------|
G|-------------------------------------------------------------------|
D|---------------------------------8-7p4p0---4p0-----4p2p0-------0---|
A|-0-0h1h4---0h4h7---0h7h10---0h10---------0-----0-----------0h4---0-|
D|-0-------0-------0--------0----------------------0-------0---------|

e|------------------------------------------------------4-----------|
B|----------------------------------------------1---3-------3-------|
G|--------------------------------------------------------------1---|
D|---------------------------------8-------0------------------------|
A|---0h1h4---0h4h7---0h7h10---0h10-----0h4--------------------------|
D|-0-------0-------0--------0--------0------------------------------|

e|-------------------4-------------|
B|-----------1---3-------3---------|
G|---------------------------1-----|
D|-------0-------------------------|
A|---0h4---------------------------|
D|-0-------------------------------|

CHORUS
e|-----------------------------------------------------------------|
B|-----------------------------------------------------------------|
G|-----------------------------------------------------------------|
D|-----------3---3-----------3---2-----------2---2-----------2---2-|
A|-----------------------------------------------------------------|
D|-5-5-5-5-----5---5-5-5-5-----5---3-3-3-3-----3---3-3-3-3-----3---|

e|-----------------------------------------------------------------|
B|-----------------------------------------------------------------|
G|-----------------------------------------------------------------|
D|-----------2---2-----------2---1-----------1---1-----------2---3-|
A|-----------------------------------------------------------------|
D|-2-2-2-2-----2---2-2-2-2-----2---2-2-2-2-----2---2-2-2-2-----2---|

e|-----------------------------------------------------------------|
B|-----------------------------------------------------------------|
G|-----------------------------------------------------------------|
D|-----------3---3-----------3---2-----------2---2-----------2---0-|
A|-----------------------------------------------------------------|
D|-5-5-5-5-----5---5-5-5-5-----5---3-3-3-3-----3---3-3-3-3-----3---|

e|---------------------------------------------------------------------------|
B|---------------------------------------------------------------------------|
G|---------------------------------------------------------------------------|
D|-----------0---0-----------0---0-----0---2-----2---0-----0---2-----2---0---|
A|-------------------------------0-----0---4-----4---0-----0---4-----4---0---|
D|-2-2-2-2-----2---2-2-2-2-----2-0-----0---2-----2---0-----0---2-----2---0---|

OUTRO
e|-------------------4-------------------------------4-------------|
B|-----------1---3-------3-------------------1---3-------3---------|
G|---------------------------1-------------------------------1-----|
D|-----------------------------------------------------------------|
A|-----------------------------------------------------------------|
D|-----------------------------------------------------------------|

e|-------------------4-------------------------------4-------------|
B|-----------1---3-------3-------------------1---3-------3---------|
G|---------------------------1-------------------------------1-----|
D|-----------------------------------------------------------------|
A|-----------------------------------------------------------------|
D|-----------------------------------------------------------------|



************************************

| /   slide up
| \   slide down
| h   hammer-on
| p   pull-off
| ~   vibrato
| +   harmonic
| x   Mute note
| b   Bend
| pb  Pre-bend
| br  Bend release
| pbr Pre-bend release
| brb Bend release bend

************************************
Добавлено: 12.03.2016
Другие материалы по этой песне:
  • Аккорды и текст

Страница создана 12.03.2016
http://primanota.ru/woyh/unisaikeet-chords.htm
Привет, Гость.
Предлагаем пройти революционный курс по гитаре.
Подарок от PrimaNota.Ru, забирай!