PrimaNota.ru - самый крупный в мире бесплатный архив песенных текстов, аккордов, табулатур и нот


Wöyh - Seitsemän Solmua - таба, видео

Регистрация Запомнить меня
Войти через:  Facebook Google Twitter Vk Yandex Mail.ru

Wöyh - Seitsemän Solmua - таба, видео

Печатать
Просмотров: 86
-------------------------------------------------------------------------------
                             Wöyh! - Seitsemän solmua
-------------------------------------------------------------------------------

Tabbed by: myskimasa

Tuning: drop D

INTRO
e|-----------------------------------------------------------------------------------|
B|-----------------------------------------------------------------------------------|
G|-----------------------------------------------------------------------------------|
D|-12-0-11-12-0-13-0-12-0-11-12-0-4-0-6-0-12-0-11-12-0-13-0-12-0-11-12-0-4-0-6-0-7-0-|
A|-----------------------------------------------------------------------------------|
D|-----------------------------------------------------------------------------------|

e|-------------------------------------------------------------|
B|-------------------------------------------------------------|
G|-------------------------------------------------------------|
D|-------------------------------------------------------------|
A|-------------------------------------------------------------|
D|-4-0-4-0-4-0-0-4-0-4-0-4-0-0-4-0-4-0-4-0-0-4-0-4-0-4-0-0-0-0-|

e|-----------------------------------------------------------------------------------|
B|-----------------------------------------------------------------------------------|
G|-----------------------------------------------------------------------------------|
D|-12-0-11-12-0-13-0-12-0-11-12-0-4-0-6-0-12-0-11-12-0-13-0-12-0-11-12-0-4-0-6-0-7-0-|
A|-----------------------------------------------------------------------------------|
D|-----------------------------------------------------------------------------------|

e|-------------------------------------------------------------|
B|-------------------------------------------------------------|
G|-------------------------------------------------------------|
D|-------------------------------------------------------------|
A|-------------------------------------------------------------|
D|-4-0-4-0-4-0-0-4-0-4-0-4-0-0-4-0-4-0-4-0-0-4-0-4-0-4-0-0-0-0-|

e|------------------------------------------------------------------------------|
B|------------------------------------------------------------------------------|
G|------------------------------------------------------------------------------|
D|-15-0-13-15-0-15-0-15-0-13-15-0-15-0-13-15-0-15-0-15-0-13-15-0-15-0-15-0-12-0-|
A|------------------------------------------------------------------------------|
D|------------------------------------------------------------------------------|

e|-------------------------------------------------------------|
B|-------------------------------------------------------------|
G|-------------------------------------------------------------|
D|-------------------------------------------------------------|
A|-------------------------------------------------------------|
D|-4-0-4-0-4-0-0-4-0-4-0-4-0-0-4-0-4-0-4-0-0-4-0-4-0-4-0-0-0-0-|

e|------------------------------------------------------------------------------|
B|------------------------------------------------------------------------------|
G|------------------------------------------------------------------------------|
D|-15-0-13-15-0-15-0-15-0-13-15-0-15-0-13-15-0-15-0-15-0-13-15-0-15-0-15-0-12-0-|
A|------------------------------------------------------------------------------|
D|------------------------------------------------------------------------------|

e|-------------------------------------------------------------|
B|-------------------------------------------------------------|
G|-------------------------------------------------------------|
D|-------------------------------------------------------------|
A|-------------------------------------------------------------|
D|-4-0-4-0-4-0-0-4-0-4-0-4-0-0-4-0-4-0-4-0-0-4-0-4-0-4-0-0-0-0-|

VERSE 1
e|-----------------------------------------------------------------|
B|-----------------------------------------------------------------|
G|-----------------------------------------------------------------|
D|---4-----3-------------------------------------------------------|
A|---------------6-----5-----5-------0h3h5-------------------------|
D|-0-----0-----0-----0-----0-----0---------0-----------------------|

e|-----------------------------------------------------------------|
B|-----------------------------------------------------------------|
G|-----------------------------------------------------------------|
D|-----------------------------------------------------------------|
A|-----------------------------------------------------------------|
D|-4-0-4-0-4-0-0-4-0-4-0-4-0-0-4-0-4-0-4-0-0-4-0-4-0-4-0-0-0-0-0-0-|

e|-----------------------------------------------------------------|
B|-----------------------------------------------------------------|
G|-----------------------------------------------------------------|
D|---4-----3-------------------------------------------------------|
A|---------------6-----5-----5-------0h3h5-------------------------|
D|-0-----0-----0-----0-----0-----0---------0-----------------------|

e|-----------------------------------------------------------------|
B|-----------------------------------------------------------------|
G|-----------------------------------------------------------------|
D|-----------------------------4---4---4-----4---4---4-----4---4---|
A|-----------------------------5---5---5-----5---5---5-----5---5---|
D|-4---4---4-----4---4---4-----4---4---4-----4---4---4-----4---4---|


CHORUS
e|---------------------------------------------------------|
B|---------------------------------------------------------|
G|-5-3-5-3-5-3-3-5-3-5-3-5-3-3-7-5-7-5-7-5-5-7-5-7-5-7-5-5-|
D|---------------------------------------------------------|
A|---------------------------------------------------------|
D|---------------------------------------------------------|

e|---------------------------------------------------------|
B|---------------------------------------------------------|
G|-6-5-6-5-6-5-5-6-5-6-5-6-5-5-6-5-6-5-6-5-5-6-5-6-5-6-5-5-|
D|---------------------------------------------------------|
A|---------------------------------------------------------|
D|---------------------------------------------------------|

e|-----------------------------------------------------4-3---------|
B|-4-3-4-3-4-3---4-3-4-3-4-3-------4-3-4-3-4-3---4-3-------4-3-----|
G|-------------5-------------5-3---------------5-----5---------5-3-|
D|-------------------------------5---------------------------------|
A|-----------------------------------------------------------------|
D|-----------------------------------------------------------------|

e|-----------------------------------------------------------------|
B|-----------------------------------------------------------------|
G|-----------------------------------------------------------------|
D|-5-4-5-4-5-4---5-4-5-4-5-4-------5-4-5-4-5-4---5-4-5-4-5-4-------|
A|-------------7-------------7-5-2-------------7-------------7-5-2-|
D|-----------------------------------------------------------------|

e|-----------------------------------------------------4-3---------|
B|-4-3-4-3-4-3---4-3-4-3-4-3-------4-3-4-3-4-3---4-3-------4-3-----|
G|-------------5-------------5-3---------------5-----5---------5-3-|
D|-------------------------------5---------------------------------|
A|-----------------------------------------------------------------|
D|-----------------------------------------------------------------|

e|-----------------------------------------------------------------|
B|-----------------------------------------------------------------|
G|-----------------------------------------------------------------|
D|-5-4-5-4-5-4---5-4-5-4-5-4-------5-4-5-4-5-4---5-4-5-4-5-4-------|
A|-------------7-------------7-5-2-------------7-------------7-5-2-|
D|-----------------------------------------------------------------|

VERSE 2
e|---------------------------------------------------------------|
B|---------------------------------------------------------------|
G|---------------------------------------------------------------|
D|---4-----3-----------------------------------------------------|
A|---------------6-----5-----5-------0h3h5-----------------------|
D|-0-----0-----0-----0-----0-----0---------0---------------------|

e|-------------------------------------------------------------|
B|-------------------------------------------------------------|
G|-------------------------------------------------------------|
D|-------------------------------------------------------------|
A|-------------------------------------------------------------|
D|-4-0-4-0-4-0-0-4-0-4-0-4-0-0-4-0-4-0-4-0-0-4-0-4-0-4-0-0-0-0-|

e|---------------------------------------------------------------|
B|---------------------------------------------------------------|
G|---------------------------------------------------------------|
D|---4-----3-----------------------------------------------------|
A|---------------6-----5-----5-------0h3h5-----------------------|
D|-0-----0-----0-----0-----0-----0---------0---------------------|

e|-----------------------------------------------------------------|
B|-----------------------------------------------------------------|
G|-----------------------------------------------------------------|
D|-----------------------------4---4---4-----4---4---4-----4---4---|
A|-----------------------------5---5---5-----5---5---5-----5---5---|
D|-4---4---4-----4---4---4-----4---4---4-----4---4---4-----4---4---|

e|---------------------------------------------------------------|
B|---------------------------------------------------------------|
G|---------------------------------------------------------------|
D|---4-----3-----------------------------------------------------|
A|---------------6-----5-----5-------0h3h5-----------------------|
D|-0-----0-----0-----0-----0-----0---------0---------------------|

e|-------------------------------------------------------------|
B|-------------------------------------------------------------|
G|-------------------------------------------------------------|
D|-------------------------------------------------------------|
A|-------------------------------------------------------------|
D|-4-0-4-0-4-0-0-4-0-4-0-4-0-0-4-0-4-0-4-0-0-4-0-4-0-4-0-0-0-0-|

e|---------------------------------------------------------------|
B|---------------------------------------------------------------|
G|---------------------------------------------------------------|
D|---4-----3-----------------------------------------------------|
A|---------------6-----5-----5-----------------------------------|
D|-0-----0-----0-----0-----0-------------------------------------|


POST-CHORUS
e|--5-------4--------2----------------------|
B|------2-------2----------------5----3-----|
G|-----------------------4---2--------------|
D|------------------------------------------|
A|------------------------------------------|
D|------------------------------------------|

e|-5-------4-------2------------------------|
B|-----2-------2---------------5----/7------|
G|---------------------4---2----------------|
D|------------------------------------------|
A|------------------------------------------|
D|------------------------------------------|

e|-5-------4-------2------------------------|
B|-----2-------2----------------------------|
G|---------------------4---2----------------|
D|-----------------------------4---2--------|
A|------------------------------------4-2-0-|
D|------------------------------------------|

e|-----------------------------------------------------------------------------------|
B|-----------------------------------------------------------------------------------|
G|-----------------------------------------------------------------------------------|
D|-12-0-11-12-0-13-0-12-0-11-12-0-4-0-6-0-12-0-11-12-0-13-0-12-0-11-12-0-4-0-6-0-7-0-|
A|-----------------------------------------------------------------------------------|
D|-----------------------------------------------------------------------------------|

e|-------------------------------------------------------------|
B|-------------------------------------------------------------|
G|-------------------------------------------------------------|
D|-------------------------------------------------------------|
A|-------------------------------------------------------------|
D|-4-0-4-0-4-0-0-4-0-4-0-4-0-0-4-0-4-0-4-0-0-4-0-4-0-4-0-0-0-0-|

e|-----------------------------------------------------------------------------------|
B|-----------------------------------------------------------------------------------|
G|-----------------------------------------------------------------------------------|
D|-12-0-11-12-0-13-0-12-0-11-12-0-4-0-6-0-12-0-11-12-0-13-0-12-0-11-12-0-4-0-6-0-7-0-|
A|-----------------------------------------------------------------------------------|
D|-----------------------------------------------------------------------------------|

e|-------------------------------------------------------------|
B|-------------------------------------------------------------|
G|-------------------------------------------------------------|
D|-------------------------------------------------------------|
A|-------------------------------------------------------------|
D|-4-0-4-0-4-0-0-4-0-4-0-4-0-0-4-0-4-0-4-0-0-4-0-4-0-4-0-0-0-0-|

e|------------------------------------------------------------------------------|
B|------------------------------------------------------------------------------|
G|------------------------------------------------------------------------------|
D|------------------------------------------------------------------------------|
A|------------------------------------------------------------------------------|
D|-15-0-13-15-0-15-0-15-0-13-15-0-15-0-13-15-0-15-0-15-0-13-15-0-15-0-15-0-12-0-|

e|-------------------------------------------------------------|
B|-------------------------------------------------------------|
G|-------------------------------------------------------------|
D|-------------------------------------------------------------|
A|-------------------------------------------------------------|
D|-4-0-4-0-4-0-0-4-0-4-0-4-0-0-4-0-4-0-4-0-0-4-0-4-0-4-0-0-0-0-|

e|-------------------------------------------------------------------------|
B|-------------------------------------------------------------------------|
G|-------------------------------------------------------------------------|
D|-------------------------------------------------------------------------|
A|-------------------------------------------------------------------------|
D|-15-0-13-15-0-15-0-15-0-13-15-0-15-0-13-15-0-15-0-15-0-13-15-0-15-0-15-0-|

BRIDGE
e|-----------------------------------------------------------------|
B|-----------------------------------------------------------------|
G|-----------------------------------------------------------------|
D|-6-------6-------6-------6-------6-------6-------6-------6-------|
A|-6-------6-------7-------7-------6-------6-------7-------7-------|
D|-6-------6-------6-------6-------6-------6-------6-------6-------|

e|-----------------------------------------------------2-1---------------------------|
B|-2-1-2-1-2-1---2-1-2-1-2-1-------2-1-2-1-2-1---2-1-------2-1-----------------------|
G|-------------3-------------3-1---------------3-----3---------3-1-------------------|
D|-------------------------------3---------------------------------------------------|
A|-----------------------------------------------------------------------------------|
D|-----------------------------------------------------------------0-----------------|

e|-----------------------------------------------------2-1---------|
B|-2-1-2-1-2-1---2-1-2-1-2-1-------2-1-2-1-2-1---2-1-------2-1-----|
G|-------------3-------------3-1---------------3-----3---------3-1-|
D|-------------------------------3---------------------------------|
A|-----------------------------------------------------------------|
D|-----------------------------------------------------------------|

e|-------------------------------------|
B|-------------------------------------|
G|-------------------------------------|
D|-0-0-0---0-0-0---0-0-0---0-0-0---0-0-|
A|-0-0-0---0-0-0---0-0-0---0-0-0---0-0-|
D|-0-0-0---0-0-0---0-0-0---0-0-0---0-0-|

OUTRO
e|---------------------------------------------------------------|
B|-----------------------------3---------------------------------|
G|-----------------------------2---------------------------------|
D|-----4---3-------------------0--------4------------------------|
A|-------------6-----0h3h5---------------------------------------|
D|-0---------------0-------0-------0-----------------------------|

e|---------------------------------------------------------------|
B|-----------------------------3---------------------------------|
G|-----------------------------2---------------------------------|
D|-----4---3-------------------0--------4------------------------|
A|-------------6-----0h3h5---------------------------------------|
D|-0---------------0-------0-------0-----------------------------|

e|---------------------------------------------------------------|
B|-----------------------------3---------------------------------|
G|-----------------------------2---------------------------------|
D|-----4---3-------------------0--------4------------------------|
A|-------------6-----0h3h5---------------------------------------|
D|-0---------------0-------0-------0-----------------------------|

e|---------------------------------------------------------------|
B|-----------------------------3---------------------------------|
G|-----------------------------2---------------------------------|
D|-----4---3-------------------0--------4------------------------|
A|-------------6-----0h3h5---------------------------------------|
D|-0---------------0-------0-------0-----------------------------|


************************************

| /   slide up
| \   slide down
| h   hammer-on
| p   pull-off
| ~   vibrato
| +   harmonic
| x   Mute note
| b   Bend
| pb  Pre-bend
| br  Bend release
| pbr Pre-bend release
| brb Bend release bend

************************************
Добавлено: 12.03.2016
Вам также может быть интересно:
Другие материалы по этой песне:
  • Аккорды и текст

Страница создана 12.03.2016
http://primanota.ru/woyh/seitseman-solmua-chords.htm
Привет, Гость.
Предлагаем пройти революционный курс по гитаре.
Подарок от PrimaNota.Ru, забирай!