PrimaNota.ru - самый крупный в мире бесплатный архив песенных текстов, аккордов, табулатур и нот


Wöyh - Savuvana - таба, видео

Регистрация Запомнить меня
Войти через:  Facebook Google Twitter Vk Yandex Mail.ru

Wöyh - Savuvana - таба, видео

Печатать
Просмотров: 71
-------------------------------------------------------------------------------
                           Wöyh! - Savuvana
-------------------------------------------------------------------------------

Tabbed by: myskimasa

Tuning: drop D

INTRO
e|---------------------------------------------------------------------------------------|
B|---------------------------------------------------------------------------------------|
G|---------9-------9--------12--12---8---8-----5-------4-------5-----5\4-----------------|
D|---------9-------9--------10--10---9---9-----5-------5-------7---------3---3---5---5---|
A|-2-------7-------7--------10--10---6---6-----3-------2-------0---------3---3---5---5---|
D|-2---------------------------------------------------------------------3---3---5---5---|

e|---------------------------------------------------------------------------------------|
B|---------------------------------------------------------------------------------------|
G|---------9-------9--------12--12---8---8-----5-------4-------5-----5\4-----------------|
D|---------9-------9--------10--10---9---9-----5-------5-------7---------3---3---5---5---|
A|-2-------7-------7--------10--10---6---6-----3-------2-------0---------3---3---5---5---|
D|-2---------------------------------------------------------------------3---3---5---5---|

VERSE 1
e|-------------------------------------------------|
B|-------------------------------------------------|
G|-------------------------------------------------|
D|-6---6-----------6---6-----------6---6-----------|
A|-------------------------------------------------|
D|---------6---6-----------6---6-----------6---6---|

e|-------------------------------------------------|
B|-------------------------------------------------|
G|-------------------------------------------------|
D|-3---3-----------3---3-----------3---3-----------|
A|-------------------------------------------------|
D|---------3---3-----------3---3-----------3---3---|

e|-------------------------------------------------|
B|-------------------------------------------------|
G|-------------------------------------------------|
D|-6---6-----------6---6-----------6---6-----------|
A|-------------------------------------------------|
D|---------6---6-----------6---6-----------6---6---|

e|-------------------------------------------------|
B|-------------------------------------------------|
G|-------------------------------------------------|
D|-3---3-----------3---3-----------3---3-----------|
A|-------------------------------------------------|
D|---------3---3-----------3---3-----------3---3---|

e|-----------------------------------------------------------------------------|
B|-----------------------------------------------------------------------------|
G|-6-6-6-6-6-6-6-6-6-6-6-6-6-6-6-6-6-6-6-6-6-6-6-6---7---7---7---7---7-----5---|
D|-6-6-6-6-6-6-6-6-6-6-6-6-6-6-6-6-6-6-6-6-6-6-6-6---6---6---6---6---6-----5---|
A|-4-4-4-4-4-4-4-4-4-4-4-4-4-4-4-4-4-4-4-4-4-4-4-4---5---5---5---5---5-----3---|
D|-----------------------------------------------------------------------------|

INTERLUDE
[gtr1]
e|---------------------------------------------------------------------------------------|
B|---------------------------------------------------------------------------------------|
G|---------9-------9--------12--12---8---8-----5-------4-------5-----5\4-----------------|
D|---------9-------9--------10--10---9---9-----5-------5-------7---------3---3---5---5---|
A|-2-------7-------7--------10--10---6---6-----3-------2-------0---------3---3---5---5---|
D|-2---------------------------------------------------------------------3---3---5---5---|

[gtr2]
e|---------------------5-----7-----------5-----------------5---7---------5-------7-------|-8-|
B|-8-------5---7---8-------------5---8---------5---7---8----------5---8------------------|---|
G|---------------------------------------------------------------------------------------|---|
D|---------------------------------------------------------------------------------------|---|
A|---------------------------------------------------------------------------------------|---|
D|---------------------------------------------------------------------------------------|---|

[gtr3]
e|-7---------------7--12----11--------11\7----10---8---7---8---10--------8------10-------|-11-|
B|---------8--10---------------------------------------------------8--11-----------------|----|
G|---------------------------------------------------------------------------------------|----|
D|---------------------------------------------------------------------------------------|----|
A|---------------------------------------------------------------------------------------|----|
D|---------------------------------------------------------------------------------------|----|

VERSE 2
e|-------------------------------------------------|
B|-------------------------------------------------|
G|-------------------------------------------------|
D|-6---6-----------6---6-----------6---6-----------|
A|-------------------------------------------------|
D|---------6---6-----------6---6-----------6---6---|

e|-------------------------------------------------|
B|-------------------------------------------------|
G|-------------------------------------------------|
D|-3---3-----------3---3-----------3---3-----------|
A|-------------------------------------------------|
D|---------3---3-----------3---3-----------3---3---|

e|-------------------------------------------------|
B|-------------------------------------------------|
G|-------------------------------------------------|
D|-6---6-----------6---6-----------6---6-----------|
A|-------------------------------------------------|
D|---------6---6-----------6---6-----------6---6---|

e|-------------------------------------------------|
B|-------------------------------------------------|
G|-------------------------------------------------|
D|-3---3-----------3---3-----------3---3-----------|
A|-------------------------------------------------|
D|---------3---3-----------3---3-----------3---3---|

e|-----------------------------------------------------------------------------|
B|-----------------------------------------------------------------------------|
G|-6-6-6-6-6-6-6-6-6-6-6-6-6-6-6-6-6-6-6-6-6-6-6-6---7---7---7---7---7-----5---|
D|-6-6-6-6-6-6-6-6-6-6-6-6-6-6-6-6-6-6-6-6-6-6-6-6---6---6---6---6---6-----5---|
A|-4-4-4-4-4-4-4-4-4-4-4-4-4-4-4-4-4-4-4-4-4-4-4-4---5---5---5---5---5-----3---|
D|-----------------------------------------------------------------------------|

BRIDGE
e|-----------------------------------------------------------------|
B|---4-----4-------4-------4-------6-------6-------6-------6-------|
G|-----5-------5-------5-------5-------5-------5-------5-------5---|
D|-------6-------6-------6-------6-------7-------7-------7-------7-|
A|-----------------------------------------------------------------|
D|-----------------------------------------------------------------|

e|-------------------------------------------------------------------|
B|-4-------4-------4-------4-------1-------1-------1-------1---------|
G|-----5-------5-------5-------5-------2-------2-------2-------2-----|
D|-------6-------6-------6-------6-------3-------3-------3-------3---|
A|-------------------------------------------------------------------|
D|-------------------------------------------------------------------|

e|-----------------------------------------------------------------|
B|---4-----4-------4-------4-------6-------6-------6-------6-------|
G|-----5-------5-------5-------5-------5-------5-------5-------5---|
D|-------6-------6-------6-------6-------7-------7-------7-------7-|
A|-----------------------------------------------------------------|
D|-----------------------------------------------------------------|

e|-------------------------------------------------------------------|
B|-4-------4-------4-------4-------1-------1-------1-------1---------|
G|-----5-------5-------5-------5-------2-------2-------2-------2-----|
D|-------6-------6-------6-------6-------3-------3-------3-------3---|
A|-------------------------------------------------------------------|
D|-------------------------------------------------------------------|

e|-----------------------------------------------------------------|
B|-----------------------------------------------------------------|
G|-----------------------------------------------------------------|
D|-4-4-4-4-4-4-4-4-4-4-4-4-4-4-4-4-4-4-4-4-4-4-4-4-7-7-7-7-6-6-6-6-|
A|-4-4-4-4-4-4-4-4-4-4-4-4-4-4-4-4-5-5-5-5-5-5-5-5-5-5-5-5-5-5-5-5-|
D|-4-4-4-4-4-4-4-4-4-4-4-4-4-4-4-4-4-4-4-4-4-4-4-4-4-4-4-4-4-4-4-4-|

e|-----------------------------------------------------------------|
B|-----------------------------------------------------------------|
G|-----------------------------------------------------------------|
D|-4-4-4-4-4-4-4-4-4-4-4-4-4-4-4-4-4-4-4-4-4-4-4-4-7-7-7-7-6-6-6-6-|
A|-4-4-4-4-4-4-4-4-4-4-4-4-4-4-4-4-5-5-5-5-5-5-5-5-5-5-5-5-5-5-5-5-|
D|-4-4-4-4-4-4-4-4-4-4-4-4-4-4-4-4-4-4-4-4-4-4-4-4-4-4-4-4-4-4-4-4-|

e|-----------------------------------------------------------------|
B|-----------------------------------------------------------------|
G|-----------------------------------------------------------------|
D|-9-9-9-9-9-9-9-9-9-9-9-9-9-9-9-9-9-9-9-9-9-9-9-9-9-9-9-9-9-9-9-9-|
A|-5-5-5-5-5-5-5-5-5-5-5-5-5-5-5-5-7-7-7-7-7-7-7-7-7-7-7-7-7-7-7-7-|
D|-5-5-5-5-5-5-5-5-5-5-5-5-5-5-5-5-6-6-6-6-6-6-6-6-6-6-6-6-6-6-6-6-|

e|---------------------------------------------------------|
B|---------------------------------------------------------|
G|---------------------------------------------------------|
D|-10-10-10-10-10-10-10-10-10-10-10-10-10-10-10-10-3-3-3-3-|
A|--7--7--7--7--7--7--7--7--7--7--7--7--7--7--7--7-3-3-3-3-|
D|--7--7--7--7--7--7--7--7--7--7--7--7--7--7--7--7-3-3-3-3-|

e|---------------------------------------------------------|
B|---------------------------------------------------------|
G|---------------------------------------------------------|
D|-3-3-3-3-3-3-3-3-3-3-3-3-3-3-3-3-3-3-3-3-3-3-3-3-3-3-3-3-|
A|-3-3-3-3-3-3-3-3-3-3-3-3-3-3-3-3-3-3-3-3-3-3-3-3-3-3-3-3-|
D|-3-3-3-3-3-3-3-3-3-3-3-3-3-3-3-3-3-3-3-3-3-3-3-3-3-3-3-3-|


OUTRO
[gtr1]
e|---------------------------------------------------------------------------------------|
B|---------------------------------------------------------------------------------------|
G|---------9-------9--------12--12---8---8-----5-------4-------5-----5\4-----------------|
D|---------9-------9--------10--10---9---9-----5-------5-------7---------3---3---5---5---|
A|-2-------7-------7--------10--10---6---6-----3-------2-------0---------3---3---5---5---|
D|-2---------------------------------------------------------------------3---3---5---5---|

e|-------------------------------------------------------------------------------|
B|-------------------------------------------------------------------------------|
G|---------9-------9--------12--12---8---8-----5-------4-------------------------|
D|---------9-------9--------10--10---9---9-----5-------5-------3---3---3---3-----|
A|-2-------7-------7--------10--10---6---6-----3-------2-------3---3---3---3-----|
D|-2-----------------------------------------------------------3---3---3---3-----|

e|-------------------------------------------------------|
B|-------------------------------------------------------|
G|-------------------------------------------------------|
D|-3---3---3---3-----3---3---3---3-----3---3---3---3-----|
A|-3---3---3---3-----3---3---3---3-----3---3---3---3-----|
D|-3---3---3---3-----3---3---3---3-----3---3---3---3-----|

[gtr2]
e|---------------------5-----7-----------5-----------------5---7---------5---------------|
B|-8-------5---7---8-------------5---8---------5---7---8----------5---8------------------|
G|---------------------------------------------------------------------------------------|
D|---------------------------------------------------------------------------------------|
A|---------------------------------------------------------------------------------------|
D|---------------------------------------------------------------------------------------|

e|---------------------5-----7-----------5-----------------5---7---5---8---7-----|
B|-8-------5---7---8-------------5---8---------5---7---8-------------------------|
G|-------------------------------------------------------------------------------|
D|-------------------------------------------------------------------------------|
A|-------------------------------------------------------------------------------|
D|-------------------------------------------------------------------------------|

e|-------------------------------------------------------|
B|-------------------------------------------------------|
G|-------------------------------------------------------|
D|-------------------------------------------------------|
A|-------------------------------------------------------|
D|-7---5---8---7-----7---5---8---7-----7---5---8---7-----|



************************************

| /   slide up
| \   slide down
| h   hammer-on
| p   pull-off
| ~   vibrato
| +   harmonic
| x   Mute note
| b   Bend
| pb  Pre-bend
| br  Bend release
| pbr Pre-bend release
| brb Bend release bend

************************************

Добавлено: 12.03.2016
Другие материалы по этой песне:
  • Аккорды и текст

Страница создана 12.03.2016
http://primanota.ru/woyh/savuvana-chords.htm
Привет, Гость.
Предлагаем пройти революционный курс по гитаре.
Подарок от PrimaNota.Ru, забирай!