PrimaNota.ru - самый крупный в мире бесплатный архив песенных текстов, аккордов, табулатур и нот


Wöyh - Parvessa - таба, видео

Регистрация Запомнить меня
Войти через:  Facebook Google Twitter Vk Yandex Mail.ru

Wöyh - Parvessa - таба, видео

Печатать
Просмотров: 62
-------------------------------------------------------------------------------
                             Wöyh! - Parvessa
-------------------------------------------------------------------------------

Tabbed by: myskimasa

Tuning: D standard into drop C

INTRO
[0:00 - 1:00]
d|-------------------------------------------------|
A|-------------6p5---5-----------------------------|
F|-----------7-----7---5h7---5---------------------|
C|-----0-5-8---------------8---7-8-5-7---5---------|
G|-------------------------------------8---5-8-3-5-|
C|-3/5---------------------------------------------|

d|-------------------------------------------------|
A|-------------6p5---5-----------------3p2---2-----|
F|-----------7-----7---5h7-----------4-----4---2h4-|
C|-----0-5-8---------------------2-5---------------|
G|---------------------------0h2-------------------|
C|-3/5---------------------2-----------------------|

d|-------------------------------------------------|
A|-------------6p5---5-----------------------------|
F|-----------7-----7---5h7---5---------------------|
C|-----0-5-8---------------8---7-8-5-7---5---------|
G|-------------------------------------8---5-8-3-5-|
C|-3/5---------------------------------------------|

d|-------------------------------------------------|
A|-------------6p5---5-----------------3p2---2-----|
F|-----------7-----7---5h7-----------4-----4---2h4-|
C|-----0-5-8---------------------2-5---------------|
G|---------------------------0h2-------------------|
C|-3/5---------------------2-----------------------|

d|-------------------------------------------------|
A|-------------------------------------------------|
F|-------------------------------------5p4---4-----|
C|-------0h2h3-------0h2h3-------0h2h3-----7---5h7-|
G|-------------------------------------------------|
C|-0h2h3-------0h2h3-------0h2h3-------------------|

d|-------------------------------------------------|
A|-------------------------------------------------|
F|-------------------------------------5p4---4-----|
C|-------0h2h3-------0h2h3-------0h2h3-----7---5h7-|
G|-------------------------------------------------|
C|-0h2h3-------0h2h3-------0h2h3-------------------|

d|-------------------------------------------------|
A|-------------6p5---5-----------------------------|
F|-----------7-----7---5h7---5---------------------|
C|-----0-5-8---------------8---7-8-5-7---5---------|
G|-------------------------------------8---5-8-3-5-|
C|-3/5---------------------------------------------|

d|-------------------------------------------------|
A|-------------6p5---5-----------------3p2---2-----|
F|-----------7-----7---5h7-----------4-----4---2h4-|
C|-----0-5-8---------------------2-5---------------|
G|---------------------------0h2-------------------|
C|-3/5---------------------2-----------------------|

d|-------------------------------------------------|
A|-------------6p5---5-----------------------------|
F|-----------7-----7---5h7---5---------------------|
C|-----0-5-8---------------8---7-8-5-7---5---------|
G|-------------------------------------8---5-8-3-5-|
C|-3/5---------------------------------------------|

d|-------------------------------------------------|
A|-------------6p5---5-----------------3p2---2-----|
F|-----------7-----7---5h7-----------4-----4---2h4-|
C|-----0-5-8---------------------2-5---------------|
G|---------------------------0h2-------------------|
C|-3/5---------------------2-----------------------|

d|-------------------------------------------------|
A|-------------------------------------------------|
F|-------------------------------------5p4---4-----|
C|-------0h2h3-------0h2h3-------0h2h3-----7---5h7-|
G|-------------------------------------------------|
C|-0h3---------0h3---------0h3---------------------|

d|-------------------------------------------------|
A|-------------------------------------------------|
F|-------------------------------------5p4---4-----|
C|-------0h2h3-------0h2h3-------0h2h3-----7---5h7-|
G|-------------------------------------------------|
C|-0h3---------0h3---------0h3---------------------|

d|-------------------------------------------------|
A|-------------6p5---5-----------------------------|
F|-----------7-----7---5h7---5---------------------|
C|-----0-5-8---------------8---7-8-5-7---5---------|
G|-------------------------------------8---5-8-3-5-|
C|-3/5---------------------------------------------|

d|-------------------------------------------4-5-6-7-|
A|-------------6p5---5-----------------5-6-8---------|
F|-----------7-----7---5h7---5-----5-7---------------|
C|-----0-5-8---------------8---7-8-------------------|
G|---------------------------------------------------|
C|-3/5-----------------------------------------------|

[1:00 - 1:34]
d|-2---2-2-2-2-2---2-2-2-2-2---2-2-2-2-2---2-2-2-2-|
A|-0---0-0-0-0-0---0-0-0-0-0---0-0-0-0-0---0-0-0-0-|
F|-4---4-4-4-4-4---4-4-4-4-4---4-4-4-4-4---4-4-4-4-|
C|-4---4-4-4-4-4---4-4-4-4-4---4-4-4-4-4---4-4-4-4-|
G|-------------------------------------------------|
C|-------------------------------------------------|

d|-2---2-2-2-2-2---2-2-2-2-2---2-2-2-2-2---2---2---|
A|-3---3-3-3-3-3---3-3-3-3-3---3-3-3-3-3---3---3---|
F|-4---4-4-4-4-4---4-4-4-4-4---4-4-4-4-4---4---4---|
C|-4---4-4-4-4-4---4-4-4-4-4---4-4-4-4-4---4---4---|
G|-------------------------------------------------|
C|-------------------------------------------------|

d|-0---0-0-0-0-0---0-0-0-0-0---0-0-0-0-0---0-0-0-0-|
A|-0---0-0-0-0-0---0-0-0-0-0---0-0-0-0-0---0-0-0-0-|
F|-1---1-1-1-1-1---1-1-1-1-3---3-3-3-3-3---1-1-1-1-|
C|-2---2-2-2-2-2---2-2-2-2-2---2-2-2-2-2---2-2-2-2-|
G|-2---2-2-2-2-2---2-2-2-2-2---2-2-2-2-2---2-2-2-2-|
C|-------------------------------------------------|

d|-------------------------0---0-0-0-0-0---0-0-0-0-|
A|-4---4-4-4-4-4---4-4-4-4-0---0-0-0-0-0---0-0-0-0-|
F|-3---3-3-3-3-3---1-1-1-3-4---4-4-4-4-4---4-4-4-4-|
C|-1---1-1-1-1-1---1-1-1-1-x---x-x-x-x-7---7-7-5-5-|
G|-------------------------5---5-5-5-5-5---5-5-5-5-|
C|-------------------------------------------------|

d|-2---2-2-2-2-2---2-2-2-2-2---2-2-2-2-2---2-2-2-2-|
A|-0---0-0-0-0-0---0-0-0-0-0---0-0-0-0-0---0-0-0-0-|
F|-4---4-4-4-4-4---4-4-4-4-4---4-4-4-4-4---4-4-4-4-|
C|-4---4-4-4-4-4---4-4-4-4-4---4-4-4-4-4---4-4-4-4-|
G|-------------------------------------------------|
C|-------------------------------------------------|

d|-2---2-2-2-2-2---2-2-2-2-2---2-2-2-2-2---2---2---|
A|-3---3-3-3-3-3---3-3-3-3-3---3-3-3-3-3---3---3---|
F|-4---4-4-4-4-4---4-4-4-4-4---4-4-4-4-4---4---4---|
C|-4---4-4-4-4-4---4-4-4-4-4---4-4-4-4-4---4---4---|
G|-------------------------------------------------|
C|-------------------------------------------------|

d|-0---0-0-0-0-0---0-0-0-0-0---0-0-0-0-0---0-0-0-0-|
A|-0---0-0-0-0-0---0-0-0-0-0---0-0-0-0-0---0-0-0-0-|
F|-1---1-1-1-1-1---1-1-1-1-3---3-3-3-3-3---1-1-1-1-|
C|-2---2-2-2-2-2---2-2-2-2-2---2-2-2-2-2---2-2-2-2-|
G|-2---2-2-2-2-2---2-2-2-2-2---2-2-2-2-2---2-2-2-2-|
C|-------------------------------------------------|

d|-------------------------0---0-0-0-0-0---0-0-0-0-|
A|-4---4-4-4-4-4---4-4-4-4-0---0-0-0-0-0---0-0-0-0-|
F|-3---3-3-3-3-3---1-1-1-3-4---4-4-4-4-4---4-4-4-4-|
C|-1---1-1-1-1-1---1-1-1-1-x---x-x-x-x-7---7-7-5-5-|
G|-------------------------5---5-5-5-5-5---5-5-5-5-|
C|-------------------------------------------------|

[1:34 - 1:48]
d|-------------------------------------------------|
A|-------------6p5---5-----------------------------|
F|-----------7-----7---5h7---5---------------------|
C|-----0-5-8---------------8---7-8-5-7---5---------|
G|-------------------------------------8---5-8-3-5-|
C|-3/5---------------------------------------------|

d|-------------------------------------------------|
A|-------------6p5---5-----------------3p2---2-----|
F|-----------7-----7---5h7-----------4-----4---2h4-|
C|-----0-5-8---------------------2-5---------------|
G|---------------------------0h2-------------------|
C|-3/5---------------------2-----------------------|


d|-------------------------------------------4-5-6-|
A|-------------6p5---5-----------------5-6-8-------|
F|-----------7-----7---5h7---5-----5-7-------------|
C|-----0-5-8---------------8---7-8-----------------|
G|-------------------------------------------------|
C|-3/5---------------------------------------------|

[1:48 - 2:24]
d|-7-----------------------------------------------|
A|-------------------------------------------------|
F|-------------------------------------------------|
C|-------------------------------------------------|
G|-------------------------------------------------|
C|-------------------------------------------------|

d|\2-----------------------------------2----3------|
A|-------------------------3------5----------------|
F|-------------------------------------------------|
C|-------------------------------------------------|
G|-------------------------------------------------|
C|-------------------------------------------------|

d|-4-----------------------6-----------7-----------|
A|-------------------------------------------------|
F|-------------------------------------------------|
C|-------------------------------------------------|
G|-------------------------------------------------|
C|-------------------------------------------------|

d|-6-----------6-----------4-----2-----------------|
A|-------------------------------------3-----0-----|
F|-------------------------------------------------|
C|-------------------------------------------------|
G|-------------------------------------------------|
C|-------------------------------------------------|

d|-----3---7---9-----------------------------------|
A|-3-----------------------------------7-----------|
F|-------------------------------------------------|
C|-------------------------------------------------|
G|-------------------------------------------------|
C|-------------------------------------------------|

d|-10---------------------10-----9-----7-----------|
A|-------------------------------------------10----|
F|-------------------------------------------------|
C|-------------------------------------------------|
G|-------------------------------------------------|
C|-------------------------------------------------|

d|-------------------------------------------------|
A|---------------------------7-7-7---------------7-|
F|-9---------------------9-9-------------9-9-9-9---|
C|-------------------------------------------------|
G|-------------------------------------------------|
C|-------------------------------------------------|

d|-----------------------7-10-----------9----7-----|
A|-9-----------9-------9---------------------------|
F|---------------8-8-8-----------------------------|
C|-------------------------------------------------|
G|-------------------------------------------------|
C|-------------------------------------------------|

d|---2-2-2-2-2-2-2-2-2-2-2-|
A|---3-3-3-3-3-3-3-3-3-3-3-|
F|---4-4-4-4-4-4-4-4-4-4-4-|
C|---5-5-5-5-5-5-5-5-5-5-5-|
G|-------------------------|
C|-------------------------|

[2:24 - 2:40]
d|-------------------------------------------------|
A|-------------6p5---5-----------------------------|
F|-----------7-----7---5h7---5---------------------|
C|-----0-5-8---------------8---7-8-5-7---5---------|
G|-------------------------------------8---5-8-3-5-|
C|-3/5---------------------------------------------|

d|-------------------------------------------------|
A|-------------6p5---5-----------------3p2---2-----|
F|-----------7-----7---5h7-----------4-----4---2h4-|
C|-----0-5-8---------------------2-5---------------|
G|---------------------------0h2-------------------|
C|-3/5---------------------2-----------------------|

d|-------------------------------------------------|
A|-------------6p5---5-----------------------------|
F|-----------7-----7---5h7---5---------------------|
C|-----0-5-8---------------8---7-8-5-7---5---------|
G|-------------------------------------8---5-8-3-5-|
C|-3/5---------------------------------------------|

d|-------------------------------------------------|
A|-------------6p5---5-----------------3p2---2-----|
F|-----------7-----7---5h7-----------4-----4---2h4-|
C|-----0-5-8---------------------2-5---------------|
G|---------------------------0h2-------------------|
C|-3/5---------------------2-----------------------|

d|-------------------------------------------------|
A|-------------------------------------------------|
F|-------------------------------------5p4---4-----|
C|-------0-2-3-------0-2-3-------0-2-3-----7---5h7-|
G|-------------------------------------------------|
C|-0-3---------0-3---------0-3---------------------|

d|-----------------------------------------------------|
A|-----------------------------------------------------|
F|-------------------------------------5---4---4-------|
C|-------0-2-3-------0-2-3-------0-2-3-------7---5-7---|
G|-----------------------------------------------------|
C|-0-3---------0-3---------0-3-------------------------|

VERSE
d|-------------------------------------------------|
A|-------------2----------------------2------------|
F|----------4-----2----------------4-----2---------| x 6
C|-------2----------------------2------------3--2--|
G|-0--4-------------------0--4---------------------|
C|-------------------------------------------------|

d|-------------------------------------------------|
A|----------------3-----------------------3--------|
F|-------2--4--5-----5--4--------2--4--5-----5--4--|
C|-3--5--------------------3--5--------------------|
G|-------------------------------------------------|
C|-------------------------------------------------|

d|-------------------------------------------------|
A|-------------2----------------------2------------|
F|----------4-----2----------------4-----2---------| 
C|-------2----------------------2------------3--2--|
G|-0--4-------------------0--4---------------------|
C|-------------------------------------------------|

d|-------------------------------------------------|
A|----------------3-----------------------3--------|
F|-------2--4--5-----5--4--------2--4--5-----5--4--|
C|-3--5--------------------3--5--------------------|
G|-------------------------------------------------|
C|-------------------------------------------------|

d|-------------------------------------------------|
A|-------------2----------------------2------------|
F|----------4-----2----------------4-----2---------| x 6
C|-------2----------------------2------------3--2--|
G|-0--4-------------------0--4---------------------|
C|-------------------------------------------------|

d|-------------------------------------------------|
A|----------------3-----------------------3--------|
F|-------2--4--5-----5--4--------2--4--5-----5--4--|
C|-3--5--------------------3--5--------------------|
G|-------------------------------------------------|
C|-------------------------------------------------|

d|-------------------------------------------------|
A|-------------2----------------------2------------|
F|----------4-----2----------------4-----2---------| 
C|-------2----------------------2------------3--2--|
G|-0--4-------------------0--4---------------------|
C|-------------------------------------------------|

d|-------------------------------------------------|
A|----------------3-----------------------3--------|
F|-------2--4--5-----5--4--------2--4--5-----5--4--|
C|-3--5--------------------3--5--------------------|
G|-------------------------------------------------|
C|-------------------------------------------------|

d|-------------------------------------------------|
A|-------------2----------------------2------------|
F|----------4-----2----------------4-----2---------| 
C|-------2----------------------2------------3--2--|
G|-0--4-------------------0--4---------------------|
C|-------------------------------------------------|

INTERLUDE
d|-------0--------0--------------0--------0--------|
A|----2--------2--------2-----2--------2--------2--|
F|-2--------1--------------------------------------|
C|-------------------4-----3--------2--------------|
G|-------------------------------------------4-----|
C|-------------------------------------------------|

d|-------0--------0--------------0-----------------|
A|----2--------2--------2-----2-----------------6--|
F|-------------------------------------------4-----|
C|-------------------2--------------------3--------|
G|-3--------4--------------0--------0--0-----------|
C|-------------------------------------------------|

FINALE

Gmaj7   Gmaj7b5   Gmaj7   Gmaj7b5
Gmaj7   Gmaj7b5   Gmaj7   Gmaj7b5

Gmaj7                     Gmaj7b5        Gmaj7   Gmaj7b5   Gmaj7
     Haukka puskee par   -   ven  keul - aan
Bm                        Bmsus2       Bm    Bmsus2   Bm
     siitä kiilaa pei   -   pon  reu - naan
C                        Csus2         C   Csus2     C
     kiljuhanhi paar   -   man nouk - kii
C#m                     C#sus2       C#m
     parvi sinne tän   -   ne kouk - kii
E                          Esus2             E   Esus2   E
     kuusi pientä naa   -   ras   -   hyyp - pää
F#                       F#sus2            F#   F#sus2   F#
     moittii kilvan täp - lik   -   kyyt - tään
A                      Amaj7       A   Amaj7
     mieli lailla tuu - len muut - tuu
C                       C-5         C
     reittikartta saa - reen puut - tuu
E                     Esus2      E
     parvi paikoillan - sa vat - kaa
E                     Esus2      E
     lokki jatkaa yk - sin mat - kaa



FINALE CHORDS IN ORDER OF APPEARANCE

  Gmaj7 Gmaj7b5 Bm Bsus2 C Csus2 C#m C#sus2 E Esus2 F# F#sus2  A  Amaj7 C  C-5
d|--2------2----2----2---3---3----4-----4--------------------------------------|
A|--3------2----3----2---5---3----5-----4---9---7---11----9---10----9---8---7--|
F|--4------4----4----4---5---5----6-----6---9---9---11---11----9----9---9---9--|
C|--5------5----4----4---5---5----6-----6---9---9---11---11---11---11--10--10--|
G|-----------------------------------------------------------------------------|
C|-----------------------------------------------------------------------------|


************************************

| /   slide up
| \   slide down
| h   hammer-on
| p   pull-off
| ~   vibrato
| +   harmonic
| x   Mute note
| b   Bend
| pb  Pre-bend
| br  Bend release
| pbr Pre-bend release
| brb Bend release bend

************************************
Добавлено: 12.03.2016
Другие материалы по этой песне:
  • Аккорды и текст

Страница создана 12.03.2016
http://primanota.ru/woyh/parvessa-chords.htm
Привет, Гость.
Предлагаем пройти революционный курс по гитаре.
Подарок от PrimaNota.Ru, забирай!