PrimaNota.ru - самый крупный в мире бесплатный архив песенных текстов, аккордов, табулатур и нот


Wöyh - Lokki - таба, видео

Регистрация Запомнить меня
Войти через:  Facebook Google Twitter Vk Yandex Mail.ru

Wöyh - Lokki - таба, видео

Печатать
Просмотров: 86
Уроки эстрадного вокала в Санкт-Петербурге
-------------------------------------------------------------------------------
                           Wöyh! - Lokki
-------------------------------------------------------------------------------

Tabbed by: myskimasa

Tuning: E standard

This is my point of view. Chord legend at the bottom.

INTRO
e|---------------------------------------------------------------|
B|---------------------------------------------------------------|
G|---------------------------------------------------------------| x 4
D|-3-3-3---3---3---3-3---3-3-----3-3-3-3-3-3-3-3-3-3-3-3-3-3-----|
A|---------------------------------------------------------------|
E|---------------------------------------------------------------|

e|-------------------------------------------------------|
B|-------------------------------------------------------|
G|-------------------------------------------------------|
D|-3-3-3---3---3---3-3---3-3-----3-3-3-3-3-3-3-----5-----|
A|-------------------------------------------------------|
E|-------------------------------------------------------|

Dm  A*  Dm  C   G   A

VERSE 1
e|---------0-------------------------------|
B|---------0-------------------------------|
G|---------5-------------------------3-----|
D|---------7-------------2---3---0---------|
A|-0---0-----------------1---1---1---------|
E|-----------------------------------------|

e|---------0-------------------------------------|
B|---------0-------------------------------------|
G|---------5-------------------------3-----5-----|
D|---------7-------------2---3---0---------5-----|
A|-0---0-----------------1---1---1---------3-----|
E|-----------------------------------------------|


CHORUS

Dm
        Varo kotkaa, lokki
                   A*
        siellä ne ampuu
Dm                                  C
        ritsoillaan ja lokkiverkoillaan
G
        jos tuntuu kaatopaikan kaipuu
        A
        palaa, lokki, kotio


VERSE 2
e|---------0-------------------------------|
B|---------0-------------------------------|
G|---------5-------------------------3-----|
D|---------7-------------2---3---0---------|
A|-0---0-----------------1---1---1---------|
E|-----------------------------------------|

e|---------0-------------------------------------------|
B|---------0-------------------------------------------|
G|---------5-------------------------3-----5-----6-----|
D|---------7-------------2---3---0---------5-----7-----|
A|-0---0-----------------1---1---1---------3-----4-----|
E|-----------------------------------------------------|


CHORUS

Dm
        Varo kotkaa, lokki
                   A*
        siellä ne ampuu
Dm                                 C
        ritsoillaan ja lokkiverkoillaan
G
        jos tuntuu kaatopaikan kaipuu
        A
        palaa, lokki, kotio



INTERLUDE

Bbmaj7   Bm7b5   Bbmaj7   Bm
Bbmaj7   Bm7b5   Bbmaj7   Bm

Bbmaj7          Bm7b5
Ritsoilla   -   aan

Bbmaj7          Bm
verkoilla   -   aan

Bbmaj7          Eb5
ritsoilla   -   aan


CHORUS

Em
        Varo kotkaa, lokki
                   B*
        siellä ne ampuu
Em                                 D
        ritsoillaan ja lokkiverkoillaan
A
        jos tuntuu kaatopaikan kaipuu
        B
        palaa, lokki, kotioioioioi

C
        Varo kotkaa, lokki
                   D
        siellä ne ampuu
Em                                 D
        ritsoillaan ja lokkiverkoillaan
C
        jos tuntuu kaatopaikan kaipuu
        B
        palaa, lokki, kotio


OUTRO
e|---------------------------------------------------------------|
B|---------------------------------------------------------------|
G|---------------------------------------------------------------| x 4
D|-2-2-2---2---2---2-2---2-2-----2-2-2-2-2-2-2-2-2-2-2-2-2-2-----|
A|---------------------------------------------------------------|
E|---------------------------------------------------------------|

e|---------------------------------------------------------------|
B|---------------------------------------------------------------|
G|---------------------------------------------------------------|
D|-2-2-2---2---2---2-2---2-2-----2-2-2-2-2-2-2-2-2-2-2-2-2-3-----|
A|---------------------------------------------------------------|
E|---------------------------------------------------------------|



CHORD LEGEND

   Em  G   A   A* Bbmaj7 Bm7b5 B   Bm  B*  C   D   Dm Eb5   
e|-------------0----0------0-------0---------------0-----|
B|-8-----------5----3------3---4---3---7---5---7---6-----|
G|-9---4---6---6----2------2---4---4---8---5---7---7---7-|
D|-9---5---7---7----3------3---4---4---9---5---7---7---7-|
A|-7---5---7---4----1------2---2---2---6---3---5---5---6-|
E|-----3---5---------------------------------------------|



************************************

| /   slide up
| \   slide down
| h   hammer-on
| p   pull-off
| ~   vibrato
| +   harmonic
| x   Mute note
| b   Bend
| pb  Pre-bend
| br  Bend release
| pbr Pre-bend release
| brb Bend release bend

************************************

Добавлено: 12.03.2016
Другие материалы по этой песне:
  • Аккорды и текст

Страница создана 12.03.2016
http://primanota.ru/woyh/lokki-chords.htm
Привет, Гость.
Предлагаем пройти революционный курс по гитаре.
Подарок от PrimaNota.Ru, забирай!